Oops, an error
Loading. Please wait.

The Bells Of Lal Part 2 Tab

1,396 views 1 this week
no commentswrite comment
1 2 3 4 5
please rate
Autoscroll
+/-
esc
set tempo
stop
Contributor
Hey! There's an official Ultimate Guitar app which is ideal
for learning songs when you're away from computer. Get the app
WARNING: You are trying to view
                                    content from Ultimate-Guitar.com
                                    in an unauthorized application,
                                    which is prohibited.

                                    Please use an official Ultimate
                                    Guitar Tabs application for iPhone,
                                    iPad or Android to access legitimate
                                    chords, guitar, bass, and drum tabs
                                    from Ultimate-Guitar.com database.

                                    Type "ultimate guitar tabs" in Apple
                                    App Store's or Android Market's
                                    search to find the application.
                           THE BELLS OF LAL (PART TWO)
                           As recorded by Joe Satriani
                  (From the 1989 Album FLYING IN A BLUE DREAM)

Music by Joe Satriani
Transcribed by www.mikesguitarsite.co.uk

         Cb6b5                 Ebm                  Cb6
      7 x 6 8 6 6          x 6 8 8 7 6          7 x 6 8 9 9

 Intro
  Q=112
 4/4
  Gtr I
      PM--------------------------------------|
|-----x-x-x-6-x-6-|-(6)-x-6-x-6-x-x-6-x-x-6-x-6-|
|-----x-x-x-7-x-7-|-(7)-x-7-x-7-x-x-7-x-x-7-x-7-|
|-----x-x-x-8-x-8-|-(8)-x-8-x-8-x-x-8-x-x-8-x-8-|
|-----x-x-x-8-x-8-|-(8)-x-8-x-8-x-x-8-x-x-8-x-8-|
|-----x-x-x-6-x-6-|-(6)-x-6-x-6-x-x-6-x-x-6-x-6-|
|-----------------|-----------------------------|


  PM------|       PM------|    PM--------------------|
|-x-6-x-6-6-x-6-6-x-x-6-x-6-|--x-x-x-6-x-x-6-x-x-6-x-6-|
|-x-7-x-7-7-x-7-7-x-x-7-x-7-|--x-x-x-7-x-x-7-x-x-7-x-7-|
|-x-8-x-8-8-x-8-8-x-x-8-x-8-|--x-x-x-8-x-x-8-x-x-8-x-8-|
|-x-8-x-8-8-x-8-8-x-x-8-x-8-|--x-x-x-8-x-x-8-x-x-8-x-8-|
|-x-6-x-6-6-x-6-6-x-x-6-x-6-|--x-x-x-6-x-x-6-x-x-6-x-6-|
|---------------------------|--------------------------|


  Gtr II
   <
|-----------------------------|------------------------------||
|-----------------------------|------------------------------||
|-----------------------------|------------------------------||
|-----------------------------|------------------------------||
|-[6]-------------------------|-(6)----------6-----([6])-----||
|-----------------------------|------------------------------||
|
| Gtr I
|     PM--------------------|                PM------------|
|-----x-x-x-6-x-x-6-x-x-6-x-6-|-----6--6-6-6-6-x-x---6---x-6-||
|-----x-x-x-7-x-x-7-x-x-7-x-7-|-----6--6-6-6-7-x-x---7---x-7-||
|-----x-x-x-8-x-x-8-x-x-8-x-8-|-----8--8-8-8-8-x-x---8---x-8-||
|-----x-x-x-8-x-x-8-x-x-8-x-8-|-----6--6-6-6-8-x-x---8---x-8-||
|-----x-x-x-6-x-x-6-x-x-6-x-6-|--------------6-x-x---6---x-6-||
|-----------------------------|-----7--7-7-7-----------------||


 Guitar Solo
        Cb6   Ebm                Cb6b5              Ebm
  Gtr I
        ||||||  |   | || ||      |      |       | | |   || |  ||
        /xx/xx  /   x x/ x/      /      /       / / /   xx /  x/

  Gtr II
                       ~~~~~~~~~~
|--------------------------|------------------------------------|
|--------------------------|------------------------------------|
|--------------------------|------------------------------------|
|--------------------------|------------------------------------|
|-([6])-------([6])s4s=6---|-(6)--(6)s8h9p8h9p8p6s4-4s6---(6)---|
|--------------------------|------------------------------------|


        Cb6             Ebm                 Cb6b5          Ebm
        | | |   |   |  | |    ||| ||        |      |   |  || || |    |  |
        / x x   /   x  x /    xx/ x/        /      /   /  // xx /    x  /

                                ~
|-----------------------------------|--------------------------------------|
|-----------------------------------|--------------------------------------|
|-----------------------------------|--------------------------------------|
|--------------------6--(6)s8---8---|-(8)h9--8h9p8s6s8h=9p=8---(8)-6-----8-|
|-(6)-6s4-4s6-6h8-9-----------------|---------------------------------9----|
|-----------------------------------|--------------------------------------|


      Cb6        Ebm                     Cb6b5         Ebm
      ||||   | | |   | | |  |    |       |     |  ||   |   | | |  | |
      /xx/   x x /   x x /  x    /       /     /  //   /   x x /  x /

|----------------------------------|-------------------------------------|
|----------------------------------|-------------------------------------|
|----------------------------------|-------------------------------------|
|-(8)----6-----6-------------------|-------------------------------------|
|----------9-8---9p8p6--(6)--(6)s4-|-(4)s6h=8-(8)p=6h8p6s4s6--(6)--(6)s==|
|----------------------------------|-------------------------------------|


      Cb6       Ebm                   Cb6b5           Ebm
      | | | | || |      | || ||       |       |   | | |   |  | |   | |
      / x x / xx /      x x/ x/       /       /   / / /   x  x /   x /

|-------------------------------|-------------------------------------|
|-------------------------------|-------------------------------------|
|-----------6---(6)-------------|-------------------------------------|
|-------6-8---------9p8s6--8--8-|-(8)h9p8p6-8-6-------6-8-9-11-9p8-9--|
|-(3)s9-------------------------|---------------9p8h9-----------------|
|-------------------------------|-------------------------------------|


        Cb6                  Ebm
         |    | | |      | | |    | | |    | |
         /    x x /      x x /    x x /    x /

                PM
|------------------------------------------------|
|------------------------------------------------|
|-----8------------------------------------------|
|-(9)---13p11p9-8-9h11p9p8-9-8-------------8h9p8-|
|------------------------------11p9p8-9-11-------|
|------------------------------------------------|


     Cb6b5           Ebm
     |      |    | | |     |  |  | |  |
     /      /    / / /     x  x  / x  /

|----------------------------------------|
|----------------------------11h12-9-11--|
|------------------7-8-10-11-------------|
|----8-------------8---------------------|
|-11---11-9-8----9-8---------------------|
|-------------11-------------------------|


       Cb6                    Ebm
       ||    |   |  |    |    |     |    |    |    ||
       /x    x   /  x    x    /     x    x    /    x/

|----------------------------------------------------|
|-(11)p=9-----9h11-12-11-9----9-11h12p11p9----9-11---|
|---------11---------------11--------------11--------|
|----------------------------------------------------|
|----------------------------------------------------|
|----------------------------------------------------|


       Cb6b5                       Ebm
       |                   |   |  | | ||    |          |     |
       /                   /   /  / / xx    /          x     /

|-------------------------------------------------------------------|
|-(11)-9-11-(11)-12-12-12-12-9--9--11p=9----9h11h12p11p9------------|
|----------------------------------------11--------------11p10p8s===|
|-------------------------------------------------------------------|
|-------------------------------------------------------------------|
|-------------------------------------------------------------------|


    Cb6                       Ebm
    ||    |    |       |   |  |          |    |    |      |    |
    /x    x    /       x   x  /          x    x    /      x    /

|----------------------------------------------------------------|
|---------7h9h11p9p7s6h7h9p=7p6s7h9h11-(11)p9p7-----------7-9h11-|
|-6h=8h10---------------------------------------10p8p7-10--------|
|----------------------------------------------------------------|
|----------------------------------------------------------------|
|----------------------------------------------------------------|


    Cb6b5                             Ebm
    |           |         |      |    |       |   |   |         |   |
    /           /         /      /    /       x   x   /         x   /

|-------------6h7h9p7p6s7h9h11p9p=7s6h7h9p7p6--------------7h9h11p9p7--------|
|-9p7p5s6h7h9---------------------------------9p7p6s7h9h11------------11p====|
|----------------------------------------------------------------------------|
|----------------------------------------------------------------------------|
|----------------------------------------------------------------------------|
|----------------------------------------------------------------------------|


    Cb6                                  Ebm
    |    |    |     |          |    |     |        |        |     |           |     |
    /    x    x     /          x    x     /        x        x     /           x     /

|-------------9h11h14p11p9------------------11h13h14p13p11-------------------13h14h16p14p|
|-9p7s9h11h12--------------12p11p9s11h12-14----------------14p12p11h12s14h16-------------|
|----------------------------------------------------------------------------------------|
|----------------------------------------------------------------------------------------|
|----------------------------------------------------------------------------------------|
|----------------------------------------------------------------------------------------|


        Cb6b5                               Ebm
         |              |           |     |   |  |  |  |        |     |
         /              /           /     /   /  x  x  /        x     /

|-13-------------------14h16h18s16p14p13-14-/21-21-21-21-21-21-21b23=====|
|----16p14p12s14h16h18---------------------------------------------------|
|------------------------------------------------------------------------|
|------------------------------------------------------------------------|
|------------------------------------------------------------------------|
|------------------------------------------------------------------------|


       Cb6             Ebm
       || |   |    |  |   |      || | | |
       /x x   /    x  x   /      xx / x /

          ~~~~~~~~~~~~~~~~~~~~~~~~~~~~~~~~~
|-(21)r==21-(21)-[21]--([21])-21---21--21-|
|-----------------------------------------|
|-----------------------------------------|
|-----------------------------------------|
|-----------------------------------------|
|-----------------------------------------|


       Cb6b5             Ebm
       |        |      || | | |   |      |  |
       /        /      // / x x   /      x  /

 ~~~~~~~~~~~~~~~~~~~~~~~~~~~~~~~~~~~~
|-(21)--[21]-([21])-21---21--21-(21)-18-19----|
|------------------------------------------21-|
|---------------------------------------------|
|---------------------------------------------|
|---------------------------------------------|
|---------------------------------------------|


     Cb6                  Ebm
      |  |  |  |     |  |  |     |  |   |      | |
      /  x  x  /     x  x  /     x  x   /      x /

|-18----------21-------18-------------------------|
|----21-19-18----18s16----------18---------16-----|
|-------------------------16-16----15-(15)----13--|
|-------------------------------------------------|
|-------------------------------------------------|
|-------------------------------------------------|


     Cb6b5            Ebm
       |      |  |  |   |   |    |  |  ||
       /      /  /  /   /   x    x  /  x/

                                    ~~~~
|----------------------------------------|
|-14------16----16---------16b18r=(16)---|
|----/15-----16----15-(15)---------------|
|----------------------------------------|
|----------------------------------------|
|----------------------------------------|


     Cb6                              Ebm
      |  |        |  |        |    |  |      |   |   |        |   |
      /  x        x  /        x    x  /      x   x   /        x   /

|-14-18-14h18p14s13---------------------------------------------------|
|---------------------------------------------------------------------|
|-------------------15s11p10-------------------------8h10h11p10p8-----|
|----------------------------11--------------8h9h=11---------------11-|
|-------------------------------13p=9s8h9h11--------------------------|
|---------------------------------------------------------------------|


      Cb6b5                Ebm
      |           |     | | | ||| | |
      /           /     / / / xx/ x /

                            ~~~~~~
|--------------------------------------|
|-----------------------------------6--|
|---------------------------------0-6--|
|-8h9h=11-8s6--------------------------|
|-------------9p8p6h8p6----/6---6------|
|-----------------------9--------------|


      Cb6       Ebm
      | || | | | |              |   |   |  | |
      / xx / x x /              x   x   /  x /

|------------------------------------------------|
|-(6)-7----6-------------------------------------|
|-(6)----6---8--(8)b10r(8)b10==(8)r(8)-(8)p6h8p6s|
|------------------------------------------------|
|------------------------------------------------|
|------------------------------------------------|


    Cb6b5      Ebm
    |     ||  ||    | | |    | |
    /     //  //    x x /    x /

               T
|---------------------------------|
|---------------------------------|
|-4h6p4s3--3/---------------------|
|--------------8s13p6--(6)---6h8p=|
|--------------------------x------|
|---------------------------------|


    Cb6           Ebm
    | | | |   | | |   | | |   | |
    / x x /   x x /   x x /   x /

|---------------------------------|
|---------------------------------|
|---------------------------------|
|-6---6-8-9-6-8---6---------------|
|---9-----------9---8-9-6-8-0-6-4-|
|---------------------------------|


      Cb6b5                                      Ebm
       |              |             |      |      |            |      |     | |      |
       /              /             /      /      /            x      x     / x      /

       \1.5/   \1.5/  \1.5/  \1.5/  \1.5/  \1.5/  \1.5/ \1.5/  \1.5/  \1.5/   \1.5/  \1.5/
|-------------------------------------------------------------------------------------------|
|-------------------------------------------------------------------------------------------|
|----------------------------------------------------------------------------h6-----(6)-----|
|-------------------------------------------------------------------------------------------|
|-(4)-(4)-----(4)----(4)----(4)----(4)----(4)----(4)h===6-----(6)----(6)--------------------|
|-------------------------------------------------------------------------------------------|


         Cb6                                            Ebm
          |      |     |     |             |      |      |             |     |     |             |      |
          /      x     x     /             x      x      /             x     x     /             x      /

   \1.5/  \1.5/  \1.5/ \1.5/ \1.5/  \1.5/  \1.5/  \1.5/  \1.5/  \1.5/  \1.5/ \1.5/ \1.5/  \1.5/  \1.5/  \1.5/
|-------------------------------------------------------------------------------------------------------------|
|-------------------------------------------------------------------------------------------------------------|
|-(6)----(6)----(6)h===8p====0-----h6-----(6)----(6)----(6)----(6)----(6)h===8p====0-----h6-----(6)----(6)----|
|-------------------------------------------------------------------------------------------------------------|
|-------------------------------------------------------------------------------------------------------------|
|-------------------------------------------------------------------------------------------------------------|


         Cb6b5                                          Ebm
          |                  |             |      |     |             |     |     |             |      |
          /                  /             /      /     /             x     x     /             x      /

   \1.5/  \1.5/  \1.5/ \1.5/ \1.5/  \1.5/  \1.5/  \1.5/ \1.5/  \1.5/  \1.5/ \1.5/ \1.5/  \1.5/  \1.5/  \1.5/
|------------------------------------------------------------------------------------------------------------|
|------------------------------------------------------------------------------------------------------------|
|-(6)----(6)----(6)h===8p====0-----h6-----(6)----(6)----6-----(6)----(6)h===8p====0--------------------------|
|------------------------------------------------------------------------------------------------------------|
|---------------------------------------------------------------------------------------h4-----(4)----(4)----|
|------------------------------------------------------------------------------------------------------------|


         Cb6                                       Ebm
          |      |     |     |        |      |      |            |     |     |        |      |
          /      x     x     /        x      x      /            x     x     /        x      /

   \1.5/  \1.5/  \1.5/ \1.5/   \1.5/  \1.5/  \1.5/  \1.5/  \1.5/ \1.5/ \1.5/   \1.5/  \1.5/  \1.5/
|--------------------------------------------------------------------------------------------------|
|--------------------------------------------------------------------------------------------------|
|--------------------------------------------------------------------------------------------------|
|--------------------------------------------------------------------------------------------------|
|-(4)----(4)----(4)h===6------h4-----(4)----(4)----(4)----(4)----4h====6------h4-----(4)----(4)----|
|--------------------------------------------------------------------------------------------------|


         Cb6b5                                     Ebm
          |                  |        |      |     |            |  ||| |
          /                  /        /      /     /            x  x/x /

   \1.5/  \1.5/  \1.5/ \1.5/   \1.5/  \1.5/  \1.5/ \1.5/ \1.5/
|--------------------------------------------------------------------x-x--|
|-------------------------------------------------------------------------|
|--------------------------------------------------------------------x-x--|
|-------------------------------------------------------------------------|
|-(4)----(4)----(4)h===6------h4-----(4)----(4)----4h====6-----(6)--------|
|-------------------------------------------------------------------------|


     Cb6               Ebm
     | | |  |     |  |  |      |   | |   | |
     / x x  /     x  x  /      x   x /   x /

|-13-x-x-x-13-13-13-13-14---------14--14--13-|
|--------------------------------------------|
|-13-x-x-x-13-13-13-13-15-11------11------13-|
|----------------------------(14)------------|
|--------------------------------------------|
|--------------------------------------------|


       Cb6b5             Ebm
        |     |     |  |  |     |  |  |     |  |
        /     /     /  /  /     x  x  /     x  /

|-(13)-13-13-13-13-13p11-14-14----14-14-14----14--|
|------------11-11-11-11-------11----------11-----|
|-(13)-13-13-------------11-11-11-11-11-11-11-11--|
|-------------------------------------------------|
|-------------------------------------------------|
|-------------------------------------------------|


    Cb6                       Ebm
    |  |       |  |         || |    | |       |    |  |
    /  x       x  /         xx /    x x       /    x  /

|-----16b17.5===(16)r-16b18---16b18--16b18==(16)r-16-16b18==|
|-----------------------------------------------------------|
|-0-x-------------------------------------------------------|
|-----------------------------------------------------------|
|-----------------------------------------------------------|
|-----------------------------------------------------------|


       Cb6b5                      Ebm
        |         |         |  |   |    || |    ||
        /         /         /  /   /    xx /    x/

                                   ~~~~~~~~~~~~~
|-(16)-16-16-16r-16b18==16-16-16r-16b18---16b18----|
|--------------------------------------------------|
|------------------------------------------------0-|
|--------------------------------------------------|
|--------------------------------------------------|
|--------------------------------------------------|


    Cb6              Ebm
     |     ||  |   || | | |   |   | |
     /     xx  /   xx / x x   /   x /

                      ~~~~~~~~~~~~~~~~
|---19b21====(19)r---19--18-(18)-16--|
|------------------------------------|
|-x----------------------------------|
|------------------------------------|
|------------------------------------|
|------------------------------------|


       Cb6b5                    Ebm
        |      |  |      |        |       | |   |   | |
        /      /  /      /        /       x x   /   x /

 ~~~~~~                                     ~~~~~~~~~~
|-(16)-18--19-18-18b19r(18)b19==(18)r(18)---------------|
|------------------------------------------16-(16)-16---|
|-------------------------------------------------------|
|-------------------------------------------------------|
|-------------------------------------------------------|
|-------------------------------------------------------|


       Cb6                         Ebm
        |  | |  |         |    |    |          |      |    |           |     |
        /  x x  /         x    x    /          x      x    /           x     /

    ~~~~
|------18-18--(18)-19-18-16-16--16-16S14-14-16--16-16--14-14-14-16-16-16S13-13-14-|
|-(16)----------------------------------------------------------------------------|
|---------------------------------------------------------------------------------|
|---------------------------------------------------------------------------------|
|---------------------------------------------------------------------------------|
|---------------------------------------------------------------------------------|


     Cb6b5                                 Ebm
      |              |        |       |     |          |      |   |        |      |
      /              /        /       /     /          x      x   /        x      /

|-16-16S14-13-11-13-14-14-14-13-11S9-11-13-13-13-11-13--14-14--11S9-11-13-13-11-9S7-7-9-|
|---------------------------------------------------------------------------------------|
|---------------------------------------------------------------------------------------|
|---------------------------------------------------------------------------------------|
|---------------------------------------------------------------------------------------|
|---------------------------------------------------------------------------------------|


     Cb6                          Ebm
     |     |   |  |       |   |   |       |   |   |       |   |
     /     x   x  /       x   x   /       x   x   /       x   /

|-11-9-7S6-7-9--9-6S4-6-7-7-7-6-4-7-7p4h6h7p6p4---4h6h7p6p4-------|
|-----------------------------------------------7-----------7p6p4h|
|-----------------------------------------------------------------|
|-----------------------------------------------------------------|
|-----------------------------------------------------------------|
|-----------------------------------------------------------------|


      Cb6b5                     Ebm
      |         |       |   |   |       |   |   |       |   |
      /         /       /   /   /       x   x   /       x   /

|-----4h6h7-4s5s6h7h9p7p6--------------------------------------------|
|-6h7---------------------9p7p6s4h6h7p6p4----------------------------|
|-----------------------------------------6p4p3h4h6p4p3s4h6h8p6p4----|
|--------------------------------------------------------------------|
|--------------------------------------------------------------------|
|--------------------------------------------------------------------|


      Cb6                               Ebm
      |    |    |     |       |   |      |      |   |   |       | |
      /    x    x     /       x   x      /      x   x   /       x /

|---------------------------------------------------------------------|
|-------4-(4)-------------------------------4-------------------------|
|-------------3h4h6p4p3s4h6h8p6p4-------------3h4h6p4p3---------------|
|---------------------------------8p6p4s(3)-------------6p4p3s1-3-3p1-|
|-6p4p3---------------------------------------------------------------|
|---------------------------------------------------------------------|


    Cb6b5                           Ebm
    |           |       |   |       |     |     |   |       |   |
    /           /       /   /       /     x     x   /       x   /

|---------------------------------------------------------------------|
|---------------------------------------------------------------------|
|---------------------------------------------------------------------|
|---------------------------------------3-4h6p4p3s4h6h8p6p4-----------|
|-4-1h2h4p2p1-----------1h2h4p2p1-2s4-6---------------------8-6p4h8---|
|-------------4p2p1h2h4-----------------------------------------------|


      Cb6                         Ebm
      |   |   |   |       |   |   |       |   |   |        |      |
      /   x   x   /       x   x   /       x   x   /        x      /

|---------------------------------------------------------------------|
|---------------------------------------------------------------------|
|---------------------------------------------------------------------|
|-4h6-8p6p4---------4-6p4s3---3s4h6p4h8-4h6h8p6p4h8-4h6h8-(8)s9p8p6---|
|-----------8p4h6-8---------6---------------------------------------9p|
|---------------------------------------------------------------------|


      Cb6b5                            Ebm
      |                 |       |     |  |  |  |         |          |        |
      /                 /       /     /  /  x  x         /          x        /

                                                         \7____/    \7____/     \7______
|--------------------------------------------------------------------------------------|
|--------------------------------------------------------------------------------------|
|--------------8h10h11p10p8-11-11b15===(11)--(11)-(11)-(11)--(11)-(11)--(11)--(11)-----|
|-----6-8-9s11-------------------------------------------------------------------------|
|-8h9----------------------------------------------------------------------------------|
|--------------------------------------------------------------------------------------|


       Cb6                  Ebm
         |    |   | |     ||  |   |     |         |    |  |
         /    x   x /     xx  /   x     x         /    x  /

    /    \7
                                                  ~~~~~
|-----------------------------------------------------11-------|
|------------------14b16====(14)-14-14r--14b16==(14)r----14b16-|
|-(11)-(11)-(11)r----------------------------------------------|
|--------------------------------------------------------------|
|--------------------------------------------------------------|
|--------------------------------------------------------------|


     Cb6b5                   Ebm
      |        |     |  |     |  | |  |   |     |
      /        /     /  /     /  x x  /   x     /

                                                 /0.5\  \7
                                      ~~~~~~~
|-11-------11-------11-------11-11-x-11-(11)-11------------|
|----14b16----14b16----14b16---------11-(11)-11------------|
|----------------------------------------------------------|
|------------------------------------------------0-----(0)-|
|----------------------------------------------------------|
|----------------------------------------------------------|


      Cb6                    Ebm
      | |     |  |         || |     ||  |  ||
      / x     x  /         xx /     xx  /  x/

   |                  \1/     \1/
                                        ~~~~~~
|------17------(17)--17------18-------(18)---|
|------20b22===(20)r-20b22---21b23====(21)---|
|--------------------------------------------|
|-(0)----------------------------------------|
|--------------------------------------------|
|--------------------------------------------|


        Cb6b5                 Ebm
        |         |         || |    | |       |    |  |
        /         /         // /    x x       /    x  /

          \1/          \1/     \1/    \1/
 ~~~~~~~                                           ~~~~
|-(18)---16-----(16)--17------18-----18-----(18)-(18)---|
|-(21)r--19b21==(19)r-20b22---21b23--21b23==(21)-(21)---|
|-------------------------------------------------------|
|-------------------------------------------------------|
|-------------------------------------------------------|
|-------------------------------------------------------|


        Cb6                    Ebm
        | |     |  |         || |    | |       |    |     |
        / x     x  /         xx /    x x       /    x     /

          \1/           \1/     \1/    \1/          \1/
    ~~~~~
|-(18)---16------(16)--17------18-----18-----(18)--18------|
|-(21)r--19b21===(19)r-20b22---21b23--21b23==(21)r-21b23===|
|----------------------------------------------------------|
|----------------------------------------------------------|
|----------------------------------------------------------|
|----------------------------------------------------------|


        Cb6b5                Ebm
         |      |    | |       |        ||| | |
         /      /    / /       /        xx/ x /

         \1/    \1/
                                    ~~~~~
|-(18)--18-----18----------------------------21b23===|
|-(21)r-21b23--21b23--21b23==(21)-(21)r--------------|
|----------------------------------------------------|
|----------------------------------------------------|
|----------------------------------------------------|
|-----------------------------------------0----------|


        Cb6        Ebm
        ||| |    || |          |      |   |               |    |
        /xx /    xx /          x      x   /               x    /

|-(21)r----21b23---21b23r(21)-21b23r(21)-21b23r(21)b23==(21)r(21)-|
|-----------------------------------------------------------------|
|-----------------------------------------------------------------|
|-----------------------------------------------------------------|
|-----------------------------------------------------------------|
|-----------------------------------------------------------------|


        Cb6b5                          Ebm
        |              |      |       | |          |           |           |                     |       |
        /              /      /       / /          x           x           /                     x       /

|-21b23--21-(21)b23==(21)r-21--21pb23--21-21pb23r(21)b23==(21)r=(21)b23==(21)r-21pb23r(21)b23==(21)r(21)--21pb23--|
|--------21-------------------------------------------------------------------------------------------------------|
|-----------------------------------------------------------------------------------------------------------------|
|-----------------------------------------------------------------------------------------------------------------|
|-----------------------------------------------------------------------------------------------------------------|
|-----------------------------------------------------------------------------------------------------------------|


     Cb6               Ebm
     |        ||  |  |||||  |     |   |
     /        xx  /  xx/xx  /     x   /

|-21-----------------------------------|
|-----21pb23====(21)r=====(21)-19------|
|----------------------------------20--|
|--------------------------------------|
|--------------------------------------|
|--------------------------------------|


     Cb6b5               Ebm
     |        |     |  |  |    || |   |  |
     /        /     /  /  /    xx /   x  /

                             ~~
|-----------------------------------------|
|-----------------------------------------|
|-18--------------------------------------|
|-----20--18s16----18-18-16---------------|
|---------------18----------18---18-(18)s=|
|-----------------------------------------|


     Cb6              Ebm                  Cb6b5     Ebm
     ||   |    |    || |    || |    ||     |  |    || | || | ||
     /x   x    /    xx /    xx /    x/     /  /    // / xx / x/

                                  ~~~~~~~~~      ~~~~~~~~~~~~
|-------------------------------------|------------------------|
|----------21-21b23---19b21---19------|--------------19---19---|
|-------x------------------------20---|-20---18-20-------------|
|-----x-------------------------------|------------------------|
|-16----------------------------------|------------------------|
|-------------------------------------|------------------------|


        Cb6        Ebm
        ||| |    || |    || |    ||
        /xx /    xx /    xx /    x/

|----------------------------------|
|-19b21----21b23---19b21---19------|
|-----------------------------20---|
|----------------------------------|
|----------------------------------|
|----------------------------------|


      Cb6b5               Ebm
      |  |       |    |    |          |  |  |  | |
      /  /       /    /    /          x  x  /  x /

                                            ~~~~~
|-------13b13.5-11--------------------------------|
|------------------13--11-------------------------|
|-20\---------------------13b15r(13)p11----11-11--|
|---------------------------------------13--------|
|-------------------------------------------------|
|-------------------------------------------------|


       Cb6           Ebm                  Cb6b5     Ebm
        | | | |    || |    || |    ||     |  |    || | || | ||
        / x x /    xx /    xx /    x/     /  /    // / xx / x/

    ~~~~                         ~~~~~~~~~           ~~~~~~~
|------------------------------------|-------------------------|
|------15-x--21b23---19b21---19------|--------------19---19----|
|-(11)--------------------------20---|-20---18-20--------------|
|------------------------------------|-------------------------|
|------------------------------------|-------------------------|
|------------------------------------|-------------------------|


       Cb6        Ebm                  Cb6b5     Ebm
       ||| |    || |    || |    ||     |  |    || |    || |     |  |
       /xx /    xx /    xx /    x/     /  /    // /    xx /     x  /

    ~~~~                      ~~~~~~~~~      ~~                    ~~~~
|---------------------------------|--------------21b23---21b23===(21)--|
|-(19)----21b23---19b21---19------|------------------------------------|
|----------------------------20---|-20---18-20-------------------------|
|---------------------------------|------------------------------------|
|---------------------------------|------------------------------------|
|---------------------------------|------------------------------------|


        Cb6                  Ebm
        ||| |       |       | |        |   | |     ||
        /xx /       x       x /        x   x /     x/

    ~~~~~                                    ~~~~~~
|-(21)r----21b23-21--21pb23--21-21pb23--21--21pb23---|
|----------------------------------------------------|
|----------------------------------------------------|
|----------------------------------------------------|
|----------------------------------------------------|
|----------------------------------------------------|


     Cb6b5     Ebm
     |    | | | |    | |  | ||
     /    / / / /    x x  / x/

                          ~
|-x\--------------------------|
|-x\--0-0---------------------|
|-----------6--(6)b8r=(6)-8---|
|-----------------------------|
|-----------------------------|
|---------0-------------------|


      Cb6                     Ebm
      || |  |         |      |  |       |      |  |       |      |
      /x x  /         x      x  /       x      x  /       x      /

            \2/   \2/    \2/    \2/ \2/    \2/    \2/ \2/    \2/
|-----------------------------------------------------------------|
|-----------------------------------------------------------------|
|-(8)--0--h13---(13)---(13)---(13)p11----(11)---(11)s10----(10)---|
|------0----------------------------------------------------------|
|-----------------------------------------------------------------|
|-----------------------------------------------------------------|


       Cb6b5                    Ebm
       |           |      |    ||    |  | |     ||
       /           /      /    //    x  x /     x/

    \2/ \2/   \2/  \2/\2/   \2/ \2/
                                     ~~~~~~~~~
|---------------------------------------------5---|
|---------------------------------------------5---|
|-(10)s=8----(8)--(8)s6----(6)h=8---(8)--(8)/-----|
|-------------------------------------------------|
|-------------------------------------------------|
|-------------------------------------------------|


              Cb6   Ebm               Cb6b5Ebm
              |||||| |  ||  |   ||    | ||| |  || |  ||
              /xx/xx /  xx  /   x/    / /// /  xx /  x/

  \7____/1.5______________________________________|
|---------------------------------|--------------------|
|---------------------------------|--------------------|
|-2---([2])---------(2)---([2])---|-2------(2)---(2)---|
|---------------------------------|--------------------|
|---------------------------------|--------------------|
|---------------------------------|--------------------|


         Cb6            Ebm                  Cb6b5      Ebm
         ||| |     | |   |   |     ||||      |   | |   ||   || |     ||
         /xx /     x x   /   x     x/x/      /   / /   //   xx /     x/

   /2.5______\0.5________|   \0.5__________________/0___\1_____/1.5_____
|--------------------------------------|-------------------------------|
|--------------------------------------|-------------------------------|
|-(2)-------(2)-----<4>-(4)-(4)--------|-(4)---x-x-0----2-----(2)------|
|--------------------------------------|-------------------------------|
|--------------------------------------|-------------------------------|
|--------------------------------------|-------------------------------|


      Cb6              Ebm
      ||| |  |  |        |       |  |  |     |  |
      /xx /  x  x        /       x  x  /     x  /

   \7
          TP
|--------14-17-13pb14==(13)r(13)p4----11----------|
|----------------------------------14----14-12-11-|
|-(2)---------------------------------------------|
|-------------------------------------------------|
|-------------------------------------------------|
|-------------------------------------------------|


     Cb6b5               Ebm
      |        |     | | | |||||
      /        /     / / / xx/x/

                         ~
|-------------------------------|
|-------------------------------|
|-13-11s10----------------------|
|----------13-11-[1]-8-6--------|
|------------------------8------|
|-------------------------------|


      Cb6                          Ebm
      |     |  |   |       |   |   |         | |   |       | |
      /     x  x   /       x   x   /         x x   /       x /

          T      T   T     T   T   T           T   T         T
|----------------------------------------------------------------|
|----------------------------------------------------------------|
|----------------------------------------------------------------|
|----------------------------------------------------------------|
|-6h9p8p6-7s8-h8-9p8-9p8p6-9p8-9p8-9p8p6s4h6s8-9p8-9p8p6h7s8-9p8-|
|----------------------------------------------------------------|


      Cb6b5                    Ebm
      |        |     |   |     | || |      |   |
      /        /     /   /     / xx /      x   /

  T      T     T     T
|-----------------------------------------------------|
|-----------------------------------------------------|
|-----------------------------------------------------|
|-----------------------------------------------------|
|-9p8p=6-8p6p4-6p4p2-2h4p2h4p2p1---(1)---------1s2----|
|--------------------------------------1h2h3h4--------|


        Cb6                     Ebm
        | |   |   |       | |   |       |   |   |       |   |
        / x   x   /       x x   /       x   x   /       x   /

|---------------------------------------------------------------|
|---------------------------------------------------------------|
|---------------------------------------------------------------|
|-------------------------------------------------3h4h6p4p3h4h6-|
|-2h4p2-2h4h6p4---2h4p2s1---------1h2h4p2p1s2h4h6---------------|
|---------------6---------4-1h2h4-------------------------------|


      Cb6b5                     Ebm
      |           |       |   | |       |   |   |       | |
      /           /       /   / /       x   x   /       x /

|----------------------------------------------------------------|
|----------------------------------------------------------------|
|-3-4h6h8p6p4----------------------------------------------------|
|-------------8-4-6h8p6p4----------------------------------------|
|-------------------------8-6p4-6h8h9p8p6-----------6h8h9-8h9----|
|-----------------------------------------9p7p6h7h9--------------|


       Cb6                                 Ebm
       |   |   |    |        |        |     |          |     |    |           |     |
       /   x   x    /        x        x     /          x     x    /           x     /

|--------------------------------------------------------------------------------------------|
|--------------------------------------------------------------------------------------------|
|---------------------10h11h13p11p10s11h13-15p13p11------------------------------------------|
|----8h=9h11p9s=11h13-------------------------------x-13p11h13-x-13p12s13h15h16p15-13s15h16h=|
|-11-----------------------------------------------------------------------------------------|
|--------------------------------------------------------------------------------------------|


     Cb6b5                                     Ebm
      |                    |           |  |     |          |     |     |           |     |
      /                    /           /  /     /          x     x     /           x     /

|----------------------------------------16h18-20p18p16-x-21p18p16h18-21-18p16-18h21p18p16h18-|
|-------------------------------16h18h19------------------------------------------------------|
|----15h16h18p16p15-19p16p15h19---------------------------------------------------------------|
|-18------------------------------------------------------------------------------------------|
|---------------------------------------------------------------------------------------------|
|---------------------------------------------------------------------------------------------|


        Cb6                                       Ebm
         |     |     |     |           |     |     |           |     |     |           |     |
         /     x     x     /           x     x     /           x     x     /           x     /

|-21-18p16-18h21p18p16h18-21-18p16-18h21p18p16h18-21-18p16-18h21p18p16h18-21-18p16-18h21p18p16h18--|
|--------------------------------------------------------------------------------------------------|
|--------------------------------------------------------------------------------------------------|
|--------------------------------------------------------------------------------------------------|
|--------------------------------------------------------------------------------------------------|
|--------------------------------------------------------------------------------------------------|


        Cb6b5                                     Ebm
         |                 |           |     |     |        |    |    |           |     |
         /                 /           /     /     /        x    x    /           x     /

                                                      TP TP TP TP        TP
|-21-18p16-18h21p18p16h18-21-21p18p16-18-19-19p16-14-16-18-16-14S=13-14-16-14-13S11-11-13-14-|
|--------------------------------------------------x-----------------------------------------|
|--------------------------------------------------------------------------------------------|
|--------------------------------------------------------------------------------------------|
|--------------------------------------------------------------------------------------------|
|--------------------------------------------------------------------------------------------|


          Cb6                                   Ebm
           |    |     |    |      |       |     |       |   |   |     |   |
           /    x     x    /      x       x     /       x   x   /     x   /

|-(14)-14-11S9-11-11-13-13-9S7-9-11-11-11-9-7S6-7-7-9-9-6s4-4-6-7-4h6h7p6p=4-|
|----------------------------------------------------------------------------|
|----------------------------------------------------------------------------|
|----------------------------------------------------------------------------|
|----------------------------------------------------------------------------|
|----------------------------------------------------------------------------|


      Cb6b5                         Ebm
      |          |       |     |    |        | |  | ||
      /          /       /     /    /        x x  / x/

                                    /1___\7_______________
|--------------------------------------------------------|
|-7-4h=6p4-----------------------------------------------|
|----------6p4p3-4h6p4p3-4h6h8p=6p4----------------------|
|-----------------------------------6---(6)---(6)--------|
|-------------------------------------------------0------|
|--------------------------------------------------------|


      Cb6       Ebm
      | |  ||| ||     | |      |  |     |
      / x  x/x x/     x x      /  x     /

             |  \1.5/   \1.5/     \1.5/
|----------------------------------------|
|----------------------------------------|
|----------------------------------------|
|----------------------h4-----(4)h6s=====|
|-(0)--(0)---4h=6------------------------|
|----------------------------------------|


        Cb6b5         Ebm
        |     |  |   | |    |    |     |       | |
        /     /  /   / /    x    x     /       x /

  \1.5/          \2/   \2/  \2/  \2/   \2/ \2/   \2/
|-----------------------------------------------------|
|-----------------------------------------------------|
|----------6-(6)h8s===10h==11p==10---(10)h11p===10h===|
|-8------x--------------------------------------------|
|-----------------------------------------------------|
|-----------------------------------------------------|


       Cb6                        Ebm
       | |    |     |       | |    |    |    |     |        | |
       / x    x     /       x x    /    x    x     /        x /

   \2/   \2/  \2/   \2/ \2/   \2/  \2/  \2/  \2/   \2/  \2/   \2/
|-----------------------------------------------------------------|
|-----------------------------------------------------------------|
|-11p===10h==11---(11)p10h===11p==10h==11p==10---(10)--11p===10h==|
|-----------------------------------------------------------------|
|-----------------------------------------------------------------|
|-----------------------------------------------------------------|


       Cb6b5                     Ebm
        |          |    |    |    |    |    |     |       | |
        /          /    /    /    /    x    x     /       x /

   \2/  \2/   \2/  \2/  \2/  \2/  \2/  \2/  \2/   \2/ \2/   \2/
|---------------------------------------------------------------|
|---------------------------------------------------------------|
|-11p==10h===11s==13p==11h==13s==15p==13h==15---(15)p13h===15s==|
|---------------------------------------------------------------|
|---------------------------------------------------------------|
|---------------------------------------------------------------|


       Cb6                       Ebm
       | |    |    |    |    |    |    |    |    |    |   |
       / x    x    /    x    x    /    x    x    /    x   /

   \2/   \2/  \2/  \2/  \2/  \2/  \2/  \2/  \2/  \2/  \2/ \2/
|-------------------------------------------------------------|
|-------------------------------------------------------------|
|-16p===15s==13h==15p==13s==11h==13p==11s==10h==11p==10s==8h==|
|-------------------------------------------------------------|
|-------------------------------------------------------------|
|-------------------------------------------------------------|


       Cb6b5                Ebm
       |        |   | |     |  |  |   |   | |
       /        /   / /     /  x  x   /   x /

   \2/  \2/ \2/ \2/            \2/\2/ \2/
                                          ~
|--------------------------------------------|
|--------------------------------------------|
|-10p===8s==6h==8---4-4h6p4p3-(3)h4s==1s==3--|
|--------------------------------------------|
|--------------------------------------------|
|--------------------------------------------|


      Cb6                  Ebm
      | |  |   |    |     |  |   |||     |  |
      / x  x   /    x     x  /   xx/     x  /

   ~~~
|------------------14b16===(14)r--------------|
|----------------x-----------------x-14-11----|
|-(3)--(3)s=12-x---------------------------14-|
|---------------------------------------------|
|---------------------------------------------|
|---------------------------------------------|


     Cb6b5               Ebm
      |        |    |  |  |    |  | |      |       |
      /        /    /  /  /    x  x /      x       /

                                           \1.5/   \1.5/
|--------------------------------------------------------|
|--------------------------------------------------------|
|-13-11--------------------------------------------------|
|-------13-11-------------------------11-(11)----(11)----|
|-------------13-11-9----11p9-11-11-9--------------------|
|---------------------11---------------------------------|


          Cb6                                             Ebm
            |       |      |     |          |       |       |               |      |     |        ||
            /       x      x     /          x       x       /               x      x     /        x/

    \1.5/   \1.5/   \1.5/  \1.5/    \1.5/   \1.5/   \1.5/   \1.5/   \1.5/   \1.5/  \1.5/
|----------------------------------------------------------------------------------------------------|
|--------------------------------------------------------------------------------------------------x-|
|-----------------------------------------------------------------------------------------13b13.5----|
|-(11)----(11)----(11)h===13------h11-----(11)----(11)----(11)----(11)----(11)h===13-----------------|
|----------------------------------------------------------------------------------------------------|
|----------------------------------------------------------------------------------------------------|


        Cb6b5                      Ebm
        |            |       |    | |       | |  |      |  |
        /            /       /    / /       x x  /      x  /

                                                        ~~~~
|------------------------------------------------------------|
|-13b14--14--------------14--------14--------14--------14----|
|-13b15-----13b15==(13)r----13b15-----13b15-----13b15r(13)---|
|------------------------------------------------------------|
|------------------------------------------------------------|
|------------------------------------------------------------|


       Cb6                Ebm
        |  |    | |    | |  |    |  | |    ||
        /  x    x /    x x  /    x  x /    x/

                                 ~~~~
|----------------11---14--(14)-(14)--14b16---|
|-------------------x------------------------|
|-(13)----13b15------------------------------|
|------12------------------------------------|
|--------------------------------------------|
|--------------------------------------------|


        Cb6b5                               Ebm
        |               |        |       |    |      | || |  |
        /               /        /       /    /      x x/ x  /

                                                     ~~
|-11-----------------------------------------------------------|
|----14--11----------------------------------------------------|
|-----------13b15r(13)p11-------13b15==(13)r(13)p11-13---13-11-|
|-------------------------13-11--------------------------------|
|--------------------------------------------------------------|
|--------------------------------------------------------------|


        Cb6                           Ebm
         |  |     |    |       |   |  |       |   |   |     | |
         /  x     x    /       x   x  /       x   x   /     x /

                                                            ~~~~
|--------------------------------------------------------------|
|--------------------------------------------------------------|
|-13p11s10-11p10h11s8-(8)-10p8p6-6--6-8-6S4-4-6-4-3-3-3-3-4p3--|
|--------------------------------------------------------------|
|--------------------------------------------------------------|
|--------------------------------------------------------------|


      Cb6b5              Ebm
      |   |          |  ||  || |  | |
      /   /          /  //  xx /  x /

 ~~~~~~~~
|-------------(9)/--------------------|
|---------------------------------7s==|
|-(3)--3-(6)/------/15\-------<7>-----|
|------------------------1/-----------|
|-------------------------------------|
|-------------------------------------|


     Cb6                                         Ebm
       |             |    | |              |   | | | |       |   ||
       /             x    x /              x   x / x x       /   x/

                                     \7______________/1.5___________
|------------------------------------------------------------------|
|-15-(15)-(15)-(15)s16s17--17-(17)-(17)--(17)-15-------------------|
|------------------------------------------------0--<5>----(<5>)---|
|------------------------------------------------------------------|
|------------------------------------------------------------------|
|------------------------------------------------------------------|


        Cb6b5Ebm
        | |||||||||
        / ////xx/x/

|------------------|
|------------------|
|-(<5>)------------|
|------------------|
|------------------|
|------------------|


        Cb6   Ebm            Cb6b5Ebm
        ||||||||||||         | |||||||||
        /xx/xx/xx/x/         / ////xx/x/

                        \4.5
|-------------------|-------------------|
|-------------------|-------------------|
|-(<5>)-------------|-(<5>)-------------|
|-------------------|-------------------|
|-------------------|-------------------|
|-------------------|-------------------|


     Cb6   Ebm      Cb6b5Ebm
     ||||||||||||   | |||||||||
     /xx/xx/xx/x/   / ////xx/x/

||---------------|--------------||
||o--------------|-------------o||
||---------------|--------------||
||---------------|--------------||
||o--------------|-------------o||
||---------------|--------------||



***************************************************************************************
* Generated using Power Tab Editor by Brad Larsen - http://powertab.guitarnetwork.org *
***************************************************************************************
comments
We did not receive enough feedback on this tab! Please rate:
print report bad tab
1 2 3 4 5
I want to post or [tab]
guest
You may want to rate the tab now too:
select rating
Please do not post tabs as comments. Select "correction" instead!