Oops, an error
Loading. Please wait.

Bach Lute Suite No1 Bwv996 Part 3 - Courante Tab

27,862 views 54 this week
no commentswrite comment
1 2 3 4 5
excellent!
x 4
add to favorites launch autoscroll
font size
0
reset
Autoscroll
+/-
esc
set tempo
stop
Contributor
Tabbers playing skills
intermediate +
WARNING: You are trying to view
                                    content from Ultimate-Guitar.com
                                    in an unauthorized application,
                                    which is prohibited.

                                    Please use an official Ultimate
                                    Guitar Tabs application for iPhone,
                                    iPad or Android to access legitimate
                                    chords, guitar, bass, and drum tabs
                                    from Ultimate-Guitar.com database.

                                    Type "ultimate guitar tabs" in Apple
                                    App Store's or Android Market's
                                    search to find the application.
Bach Lute Suite No.1 BWV996 Part3 Courante         

3/2 |     |      |     |       |     |   |         |   |     |   |   |   |
||------|----------------------------------------|-------------------0------2--|
||------|----------------------------------------|-0------0--1---0-------------|
||*-----|----------------------0---2-2-------0h2-|-0---------0-------0---2-----|
||*---2-|-2h4p2-----4--4---2h4-2---------4-------|--------4--2---4-------------|
||------|-----------7--6-------------3---5-------|---------------5---3---------|
||------|--------0-------------------------------|-----3-----------------------|
      1   1 3 1     1   2  1 2 1   1 1   3     1       3  4  1    2  3   1  2
                    4   4            2   4                   2    3       

  |     |     |     |     |     |         |     |     |      |     |     |
|-------------------------2---------0h2-|-3--------2--0---------0--------------|
|-4-----------4-----5-----5-----4-------|-5------------------3-----1--------0--|
|-4--------4--2-----0-------------------|-------------0---2--4-----2-----0-----|
|-------------------------4-------------|-2--------4---------------4-----------|
|-------2-------------------------------|--------------------------------------|
|---------------------------------------|-------0------------------------------|
  4     1  3  4     4     1     4      1  2        1      1  2     1
  3           1           4               4        3         3     2 
                          3               1                        4

  |     |     |     |     |     |       |     |     |     |      |     |
|-0-----------------------------------|---------------------------------------|
|-1--------3--1--0--1--3--0-----------|-3--------1--0-------------------------|
|-0-----------------0--------------2--|----------------2--0--2h4-----------0--|
|----------0--2-----------4-----2-----|-0-----2-----4-----2------4------------|
|-3-----3-----------------5-----3-----|-2-----3-----5--------3---5-----3------|
|-------------------------------------|---------------------------------------|
  1     3  4  1     1  1  2     2  1    4     2  1  3   1 1  1 4 2     1
  3           2           3     3       2     3     4        2   3     

  |     |     |       |     |     |        |     |     |     |     |     |
|-----------------0-2-3----------------0-|-------------------------------------|
|----------0--1h3-----------2--------3---|----------0--------------------------|
|-0-----2-------------------2------------|-3-----------------0-----------------|
|---------------------------2-----4------|-2-----0-----4-----0-----2--------2--|
|-2-------------------------------5------|-4-----2-----4-----2-----3-----2-----|
|----3--------2-------0------------------|-------------6-----------------------|
  2  3  2     1 4   3 4     1     3  2     2     1     1     1     2     1  2
              2             1     4        1           1           3
                            1              3           3

  |     |     |     |     |          |       |     |     |     |     |    |
|-------------------3----------------------|----------------------------------||
|----------------0-----0-------------------|-0--------------------0--0--------||
|-------------------------3h4p3h4p3-----4--|-------------1-----3-------------*||
|-2--------4--0----------------------2-----|-1--------4--2-----2-----1-------*||
|-1-----------2-----4----------------------|-------2-----4-----------2--------||
|-------2-----------0-----2----------------|-------------------2--------------||
  2     1  4  1     2     2 3 2 3 2  1  3    1     2  4  1     4     1
  1                 3     1                              2     2     2
                                                         4     1

3/2 |      |    |     |     |    |     |     |    |     |     |    |     |
||----7--|-7-------5--3--5--2----0--2--3---|------5--3--2--0-------------------|
||-------|-0----------------3----------3---|-5----------1-----4----4--------4--|
||*------|-0-------5--4--5-------5-----4---|-5----4-----2-----4-------4--2-----|
||*------|---------------------------------|-----------------------------------|
||-------|---------------------------------|-----------------------2-----------|
||-------|------3--------------------------|-----------------------------------|
      4    4    1  4  1  4  1    4  1  1     4    4  1  3     4    4  3  1   4
                   3  2  3  2          1     3    2     1     3    1
                                       2                2

  |     |     |     |     |     |       |     |     |     |     |     |
|-0-----------------------------------|-------------------------------------|
|-0--------3--1--3--0--------0--1-----|-------3--1--0-----------0-----------|
|-1-----------2-----2-----1-----2-----|-2-----0--------2--1--------0--2-----|
|-------2-----------0-----2-----------|-3-----2-----3-----2-----0-----2-----|
|-------------------------------0-----|-------------5-----------------3-----|
|-------------------------------------|-------------------------------------|
  1     2  4  1  4  2     1     1       2     4  1  3  1  1           2
              2           2     2       3     2     4     2           1
                                                                      3

  |     |     |     |     |     |       |     |     |     |     |     |
|----------------0--------------------|----------------------------------0--|
|-------3-----0-----1--3--0-----------|----------0--1--------2--3-----2-----|
|-2-----------------2-----------1--2--|-2-----------2-----0-----4-----0-----|
|-0-----3-----2-----2--0--2-----------|-------2-----------------4-----2-----|
|-2-----0-----------0-----------------|-0-----------------------------------|
|-------------4-----------------0-----|-------------------------------------|
  2     4     1     1  4  2     1  2    2     1     1        1  2     2
  1     3     4     3                               2           4     1
                    2                                           3

  |     |     |     |     |     |         |     |      |        |   |    |
|-2--------2--3-----0--5--5---------3h5-|-7------------0--------------------7--|
|-3-----------3-----------------3-------|-0----------4------4h5-7---4----7-----|
|-2-----------0-----------5-----5-------|-0--------0---------------------4-----|
|-0-----------------------------0-------|----5--7------4--2---------4----------|
|-------3-----2-----3-----0-------------|-----------------------6--------------|
|---------------------------------------|--------------------------------------|
  2     4  4  4     1  4  4     1    1 4  4  1  3    2 3  1 3 4 4   1    4  4
  3           3           3     3                               2   1    1
  1           1

  |       |       |       |      |      |        |   |     |   |     |   |
|------7--7----------7-8----------------0-2-3--|---------------------0------0--|
|-8-10------10-8--10----------7--7-5-4---------|-1------2--3------4--0---------|
|-------------------------8-9-----------0------|-----0---------4---------2-----|
|--------------0-----------------4-------------|-2---------4-------------------|
|-7------------------------------0-------------|-0---------2---------3---4-----|
|-----------------8-------7-------------3------|-------------------------------|
  2 4  1  1 4  2  4  1 3  2 3 1  4 2 1  3 2 4    1      2  2   3  4  2   1
  1               2       1      1               2         3             4
                                                           1

  |   |     |         |       |          |       |   |       |   |     |  | 
|-2---------3-3h5p3p2-0---0-2-2h3p2h3p2-----0--|-0-----2h4h5--------0--0------||
|--------0--------------4----------------------|-------------4---------0------||
|-2--------------------------------------------|-------------2---------1-----*||
|-0---1-----2----------------------------1-----|-2-----------4---------------*||
|---------------------0-------2----------------|-----------------2------------||
|----------------------------------------------|-----0-----------------0------||
  3   1     2 2 4 3 1   4   3 3 4 3 4 3  1       2     1 3 4 3   1     2
  2         1                 2                              1
                                                             2
I want to post or [tab]
guest
You may want to rate the tab now too:
select rating
Please do not post tabs as comments. Select "correction" instead!