Oops, an error
Loading. Please wait.

Sugarfoot Rag Tab

ver1
ver1

Whole song

Interactive

More versions @911Tabs.com
14,546 views 9 this week
no commentswrite comment
1 2 3 4 5
accurate
x 6
Autoscroll
+/-
esc
set tempo
stop
Contributor
Hey! There's an official Ultimate Guitar app which is ideal
for learning songs when you're away from computer. Get the app
WARNING: You are trying to view
                                    content from Ultimate-Guitar.com
                                    in an unauthorized application,
                                    which is prohibited.

                                    Please use an official Ultimate
                                    Guitar Tabs application for iPhone,
                                    iPad or Android to access legitimate
                                    chords, guitar, bass, and drum tabs
                                    from Ultimate-Guitar.com database.

                                    Type "ultimate guitar tabs" in Apple
                                    App Store's or Android Market's
                                    search to find the application.
john 5
sugarfoot rag

Not my tab originally, I have changed a few notes where I think it's wrong, go to
taborama.com for the original. Enjoy.


E|---------2-5--3h5p3p2---------------------------------------------||
B|-------3--------------3-------------------------------------------||
G|-----4---------------------------------4--------------------------||
D|-2h5---------------------4-----------4----------------------------||
A|---------------------------5-4-----5------------------------------||
E|-------------------------------5-3--------------------------------||


E|---------------------------------------------3--------------------------||
B|------------------------------------------/3---3p0-1p0------------------||
G|--------12-12-14-12----------10-12-12-10\--------------2-0------0-------||
D|-12-14--------------15----12-------------------------------2-0----12-14-||
A|-----------------------12-----------------------------------------------||
E|------------------------------------------------------------------------||
pm ....................................                 ........ 

E|--------------------------------------3---------------------------||
B|-----------------------------------/3---3p0-1p0-------------------||
G|-12-12-14-12-----------10-10-12-10\-------------2-0-----0---0-----||
D|--------------15----12------------------------------2-0---0-------||
A|-----------------12-----------------------------------------------||
E|------------------------------------------------------------------||


E|------------------------3-5p4p3--------------------------------------||
B|-/3/3--0/3/3----0--/3/3---------5p3p2-----------/3/3--0/3/3----------||
G|-/4/4--0/4/4-0-2---/4/4---------------4p3p2-----/4/4--0/4/4-----0----||
D|--------------------------------------------4h5-------------0-2------||
A|---------------------------------------------------------------------||
E|---------------------------------------------------------------------||


E|----------------------------||
B|----------------------------||
G|-2br-0-2-0-----0------------||
D|-----------2-0-4b-----------||
A|----------------------------||
E|----------------------------||


E|--------------------------------------3--------------------------||
B|-----------------------------------/3---3p0-1p0------------------||
G|-12-12-14-12-----------10-10-12-10\-------------2-0-----0--------||
D|--------------15----12------------------------------2-0---12-14--||
A|-----------------12----------------------------------------------||
E|-----------------------------------------------------------------||


E|--------------------------------------3---------------------------||
B|-----------------------------------/3---3p0-1p0-------------------||
G|-12-12-14-12-----------10-10-12-10\-------------2-0-----0---0-----||
D|--------------15----12------------------------------2-0---0-------||
A|-----------------12-----------------------------------------------||
E|------------------------------------------------------------------||


E|-------------------------------3-5p4p3------------------------------------||
B|-/3/3--0-----------------/3/3----------5p3p2-----------/3/3--0/3/3--------||
G|-/4/4--0-3br--0-2-0------/4/4----------------4p3p2-----/4/4--0/4/4-----0--||
D|--------------------2-0----------------------------4h5-------------0-2----||
A|--------------------------------------------------------------------------||
E|--------------------------------------------------------------------------||


E|-------------------------------------||
B|-------------------------------------||
G|----------0ph--------0--0--0---------||
D|-9\0--9\0------------0--0--0---------||
A|----------------2-0--1b-1b-1b--5h7---||
E|-------------------------------------||


E|----------------------------------------------------------------||
B|-----------------------------------------------------------3/---||
G|------------------------0---0---0-------------------------------||
D|-5---5-0-0-5-0-5-0-5ph--0---0---0-----x-5-xx-4-xx-3-xx0---------||
A|-----------------------------------/7---------------------------||
E|------------------------2b-2b---2b------------------------------||
pm..................

E|----------------------------------------------------------------||
B|-12h15p12--------15h17p15-----12h15p112--------15h17p15---------||
G|----------14/17-----------16\-----------14/16------------16\----||
D|----------------------------------------------------------------||
A|----------------------------------------------------------------||
E|----------------------------------------------------------------||


E|-----------------------------------------------------12-15--------||
B|-12h15p12--------15h17p15------12h15p15------------12-------------||
G|----------14/17-----------16\-----------12-14----12---------------||
D|-----------------------------------------------14-----------------||
A|------------------------------------------------------------------||
E|------------------------------------------------------------------||
pm                                               ........

E|-------12-15-------12-15-------12-15-------12-------------------||
B|-----12----------12----------12----------12---------------------||
G|---12----------12----------12----------12-----------------------||
D|-14----------14----------14----------14-------------------------||
A|----------------------------------------------------------------||
E|----------------------------------------------------------------||
pm ........     ........   ........    ........

E|-15p12---------------------------------------||
B|-------15-12---------------------------------||
G|-------------14-12--------15-14---12/6-------||
D|-------------------14-12---------------------||
A|---------------------------------------------||
E|---------------------------------------------||


E|---------------------------------------------------------------||
B|---------------------------------------------------------------||
G|-12b13p12p11-10-12b13p12p11-10-12b13p12p11-10-12b13p12p11-10---||
D|---------------------------------------------------------------||
A|---------------------------------------------------------------||
E|---------------------------------------------------------------||


E|----------------------------------------------------------------||
B|----------------------------------------------------------------||
G|-12b13p12p11-10-13b14p12p11-14b15p14p13-12-15b16p15p14p13-14-13-||
D|----------------------------------------------------------------||
A|----------------------------------------------------------------||
E|----------------------------------------------------------------||


E|-15----15-----18--15--12-----------------------------12-15------||
B|-18br--18br---------------15--12-------------------13-----------||
G|----------------------------------14-12-14b-12---14-------------||
D|-----------------------------------------------15---------------||
A|----------------------------------------------------------------||
E|----------------------------------------------------------------||


E|-20p19p18p17-----------------------12-15/20p19p18p17----------------------12-15/---||
B|-------------20p19p18p17--------13-------------------20p19p18p17-------13----------||
G|-----------------------------14-------------------------------------14-------------||
D|--------------------------15-------------------------------------15----------------||
A|-----------------------------------------------------------------------------------||
E|-----------------------------------------------------------------------------------||


E|-21p20p19p18\17--------------------------------------------12-15/----||
B|----------------20p19p18p17-----------------------------13-----------||
G|----------------------------19p16--------------------14--------------||
D|----------------------------------19-17-21-19-17--15-----------------||
A|---------------------------------------------------------------------||
E|---------------------------------------------------------------------||


E|-20p19p18p17-------------------12-15-21p20p19p1817-------------------||
B|-------------20p19p18p17-----13---------------------20p19p18p17--x---||
G|---------------------------14----------------------------------------||
D|-------------------------15------------------------------------------||
A|---------------------------------------------------------------------||
E|---------------------------------------------------------------------||


E|-15-x------------------------------------------------------------||
B|------x----------------------------------------------------------||
G|--------14---------10-11-12----12-12-14-12-----------10-10-12-10-||
D|-----------14---12--------------------------15----12-------------||
A|-------------------12-13-14--------------------12----------------||
E|-----------------------------------------------------------------||
pm                               ...........

E|--------------------------------------------------------------------||
B|-----10---9---------------------------------------------------------||
G|-10---9---8---------12--------12-12-14-12-----------10-10-12-10-----||
D|--------------------12-12-14---------------15----12-----------------||
A|-12--11--10---12/14---------------------------12--------------------||
E|--------------------------------------------------------------------||
pm                       .........................................

E|----------------------------------------------------||
B|-3-3-3-3-3----3-3---3-3-3-3-3-3-3-3-3-3-3--3-3------||
G|-2-3-2-0-2b---2-0---2-0-3-2-0-0-2-3-2-0-2b-2-0------||
D|----------------------------------------------------||
A|----------------------------------------------------||
E|----------------------------------------------------||


E|------------------------------------------------||
B|-3h5p5-----10h12p10-----15h17p15----------------||
G|-------3/-----------12/-----------16p0-0-0------||
D|------------------------------------------------||
A|------------------------------------------------||
E|------------------------------------------------||


E||---3-------------------------3---3---3--------------------------||
B||o----5-3-----------------------5---3----------------------------||
G||---------5-0-4-0-2-0-4-0-2-0------------5-0-4-0-2-0----0--------||
D||-----------------------------------------------------5---3/5----||
A||o---------------------------------------------------------------||
E||----------------------------------------------------------------||
pm          ...................            ...........

E|-3---3---3--------------------------------------------------------||
B|---5---3------------------------------3--------4--------5-8\-----o||
G|-----------5-0-4-0-2-0-4-0-2-0--3h4p3----4h5p4----5h6p6-----------||
D|------------------------------------------------------------------||
A|-----------------------------------------------------------------o||
E|------------------------------------------------------------------||
pm           ...................

E|----------6---3------5-3------3/---------||
B|-----3----------3--------3---------------||
G|-3/6---6----6-----5--------4-------------||
D|-----------------------------------------||
A|-----------------------------------------||
E|-----------------------------------------||


E|-----15-15-15-18-16-15----------15----14---------13----12-------||
B|-18b-------------------18b--18b----17----17b-16b----15----15b---||
G|----------------------------------------------------------------||
D|----------------------------------------------------------------||
A|----------------------------------------------------------------||
E|----------------------------------------------------------------||


E|------------------||
B|-12-11-10-9---8\--||
G|-15-14-13-12-11\--||
D|------------------||
A|------------------||
E|------------------||


E|-6-7-8-7-6---------------------------------------------------------||
B|-----------8-6-5---------------------------------------------------||
G|-----------------7-6-5------------------------------------7---9-7--||
D|-----------------------7-6-5-------5--------5---7b-5--7/9---9------||
A|-----------------------------7-6-5---5--5h7---5--------------------||
E|-------------------------------------------------------------------||


E|-------------------10---------10----8-------10----8-------------||
B|-----8---8-10p8-10----10-8-10----10---10-10----10---10\---------||
G|-7/9---9-------------------------------------------------5nh----||
D|---------------------------------------------------------5nh----||
A|----------------------------------------------------------------||
E|----------------------------------------------------------------||

p=pull off
h=hammer on
ph=pinched harmonic
nh=natural harmonic
pm=palm mute
b=bend
\or/=slide
comments
print report bad tab
I want to post or [tab]
guest
You may want to rate the tab now too:
select rating
Please do not post tabs as comments. Select "correction" instead!