Oops, an error
Loading. Please wait.

Ocean Live Tab

ver1
ver1

Whole song

Interactive

More versions @911Tabs.com
416,469 views 1,448 this week
39 commentsread comments
1 2 3 4 5
excellent!
x 87
add to favorites launch autoscroll
font size
0
reset
Autoscroll
+/-
esc
set tempo
stop
Contributor
Difficulty
advanced
WARNING: You are trying to view
                                    content from Ultimate-Guitar.com
                                    in an unauthorized application,
                                    which is prohibited.

                                    Please use an official Ultimate
                                    Guitar Tabs application for iPhone,
                                    iPad or Android to access legitimate
                                    chords, guitar, bass, and drum tabs
                                    from Ultimate-Guitar.com database.

                                    Type "ultimate guitar tabs" in Apple
                                    App Store's or Android Market's
                                    search to find the application.
Ocean
Thanks to NewYorkYankee for getting this tab to me.
Please PM me if you find any corrections.  SN: Metatron

Tuning: C Open (CGCGCE)

Intro - finger tap with both hands)


|---3-0-------------------------------3-0---------------------------|
|-------4-2-0-----2-0-4-2-0---------------4-2-0-----2-0-4-2-0-------|
|-------------4-0-----------4-0-4---------------4-0-----------4-0-4-|
|-------------------------------------------------------------------|
|-------------------------------------------------------------------|
|-5---------------------------------7-------------------------------|

|---3-0-------------------------------------------------------------|
|-------4-2-0-------------------------------------------------------|
|-------------4-0-2-0-4-0-2-0-2-0-----2-0-4-2-0-2-0-----2-0-4--2--0-|
|-------------------------------------------------------------------|
|-------------------------------------------------------------------|
|-0---------------------------------4-----------------5-------------|


|---3-0-------------------------------3-0---------------------------|
|-------4-2-0-----2-0-4-2-0---------------4-2-0-----2/4\2-0-2-0-----|
|-------------4-0-----------4-0-4---------------4-0-------------2---|
|-------------------------------------------------------------------|
|-------------------------------------------------------------------|
|-5---------------------------------7-------------------------------|

|-------------------------------------------------|
|---2-0-------------------------------------0-----|
|-------4-2-0-4/5\4-0-2-0---------------------0---|
|-------------------------4/5\4-0-2-----2/4-------|
|-------------------------------------------------|
|-4---------------------------------------------0-|

Intro 2 (no finger tap)

|----------------------------0---------------------------------|
|-----0-------0-------0-----------------0h4p5p4p0-----0------0-|
|-------0-------0--------0------------------------0h5---4------|
|--------------------------------------------------------------|
|---------------------------------0h4h5------------------------|
|-0h4-----4-------4h5------5---0---------------------------0---|

|-------------------------------------3--0-------------------------|
|-----0-------0-------0------0-------0------4-2h4p2p0--------------|
|-------0-------0--------0----------0-----------------0h4-4br----4-|
|----------------------------------0-------------------------------|
|---------------------------------0--------------------------------|
|-0h4-----4-------4h5------5---0-0-----------------------------0---|

|-----------------------------------------------------|
|-----0-------0-------0------0-----7---7-7\2---2----0-|
|-------4-------4--------5-----5/9-9---9-9\4---4------|
|-----------------------------------------------------|
|-----------------------------------------------------|
|-0h4-----4-------4h5------5----------------------0---|

|------------------------------------------------------------|
|-----0-------0-------0------0------------------------0----0-|
|-------4-------4--------5-----------------0-h4p0-4h5--------|
|------------------------------------------------------------|
|------------------------------------0h4h5-------------------|
|-0h4-----4-------4h5------5---0h4h5---------------------0---|

|----------------------------------------------------------------------|
|----------------------------------------------------------------------|
|-----2-2--2-2-2p0-0-0---------------------------4p0-----------7-------|
|-----0-0--0-0-0---0-0-0h2-2-2-2/4-4--4--0h4-4p0-----0-0-4/5-5-5-------|
|-----0-0--0-0-0---0-0-0---0-0-0-0-0--0--0-----------0-0-0-0-0-0-------|
|-0h2-2-2--2-2-2---2-2-2---2-2-2/4-4--4--4-----------4-4-4/5-5-5-------|

|-----------------------------3p0---3p0---3p0--------------------------------------|
|-----2-0h2p0----------------------------------------5-4---0h4p0-------------------|
|-----0-------0h2-2br--2/4--------4-----4-----4/5----0-----------5p4p0-------------|
|-0---0----------------0-0--------------------0-0----0-----------------0h5p0-4p0-0-|
|-0---0----------------0-0--------------------0-0----0---------------------------0-|
|-0---2----------------2/4--4-----------------4/5----5---------------------------5-|

|--------------------------|
|--------------------------|
|--------------------------|
|-0--------0------0--------|
|-5--4---4-5-7----5--------|
|-5--5---5-5-5----5--------|

Fast part

|----------------------------------------------------------------------------------------3p0---|   play 
|--0h2--0----0-2p0-4-2p0---0h2p0-2p0---0h2p0----0----0h2--0----0-2p0-4-2p0---0h2p0-2p0---------|
|-0-------4--------------0-----------0-------4------0-------4--------------0-----------0-------|
|----------------------------------------------------------------------------------------------|
|----------------------------------------------------------------------------------------------|   this
|-------------------------------------------------0--------------------------------------------|

|----3p0--------------------------------------------------------------------------------|
|--------4-2p0---0h2p0-2p0-----------------------------------------------------------0--|   part
|--------------0-----------4-2p0---------------------------------------0-4p0---0h4h5----|
|--------------------------------4-2p0-0----0----------4p0---0h4p0-4h5-------0----------|
|----------------------------------------4-------0h4h5-----0----------------------------|   twice
|-0-------------------------------------------0-----------------------------------------|

doesn't show exact strumming/picking pattern

|------------------------------------------------------------------------------------------------|
|-------0-----------0---------7--5--4-2-0--------0-----------0----0----------7-----7-----7-----7-|
|-------5-----------4---------9--7--5-4-0--------5-----------4----7------7h9---7h9---7h9---7h9---|
|-------0-----------0---------0--0--0-0-0--------0-----------0----0------------------------------|
|-------0-----------0---------0--0--0-0-0--------0-----------0----0------------------------------|
|-0h4-4-4-----4/5-5-5-----0----------------0h4-4-4-----4/5-5-5----5---0--------------------------|

|-------------------3p0----------------------------------------------------------------------------|
|-0-----0-0-0-----------4-2p0---0h2p0-2p0-4-2p0---0h2p0----0--------0--------0----------0----------|
|-9-----9\5-5-----------------0-----------------0-------4-----------5--------5----------5----------|
|-0-----0-0-0-------------------------------------------------------0--------0----------0----------|
|-0-----0-0-0--------------------------------------------------------------------------------------|
|-9-----9\5-5-------------------------------------------------0h4-4-4--4/5-5-5------0-0-0----------|

|----------------------------------------------------7---------------------5-3-------------------------|
|-0-----0-0-0--------------7-----7-----7---7h9-7---9-7--9-----9\5-5-------0----4---0h2p0-2p0-4-2p0-----|
|-9-----9\5-5----------7h9---7h9---7h9----7------9---7--0-----0-0-0------0-------0-----------------0-4-|
|-0-----0-0-0----------------------------0-----------0--0-----0-0-0------------------------------------|
|-0-----0-0-0------------------------------------------------------------------------------------------|
|-9-----9\5-5-------0-----------------------------------9-----9\5-5----0-------------------------------|

|--------------------------------------------------------------------------------|
|-9-----9\5-5-5/7---7--5--4-2-0--0-----0-0-0-----0-0--0-----5--4--2-0------------|
|-0-----0-0-0-0-0---9--7--5-4-0--9-----9\5-5-----5-4--2--0--0--0--0-0-2--4--5----|
|-0-----0-0-0-0-0---0--0--0-0-0--0-----0-0-0-----0-0--0--0--5--4--2-0-0--0--0----|
|-0-----0-0-0-0-0---0--0--0-0-0--0-----0-0-0-----0-0--0--0--0--0--0-0-2--4--5----|
|-9-----9\5-5-5/7----------------9-----9\5-5-----0-0--0--0--0--0--0-0-0--0--0----|

|---------------------------------------------8p7-7-7--7---7-7--7---8-8--8-8h10-8-8--|
|-5-----4-----5--4--0-0-0-0-0----5-----7------7---7-7--7h9-7-7--7---7-7--7-7----7-7--|
|-0-----0-----0--0--5-4-0-0-0----0-----0------7---7-7--7---7-7--7h9-7-7--7-7----7-7--|
|-0-----0-----0--0--0-0-5-4-0----0-----0---------------------------------------------|
|-0-----0-----0--0--0-0-0-0-0----0-----0---------------------------------------------|
|-5-----5-----5--5--5-5-5-5-5----0-----0---------------------------------------------|

|--------------------------------------------------------|
|-5-----4-----5--4--0-0-0-0-0----5-----4-----9--7--5-4-0-|
|-0-----0-----0--0--5-4-0-0-0----0-----0-----0--0--0-0-0-|
|-0-----0-----0--0--0-0-5-4-0----5-----4-----9--7--5-4-0-|
|-0-----0-----0--0--0-0-0-0-0----0-----0-----0--0--0-0-0-|
|-5-----5-----5--5--5-5-5-5-5----0-----0-----0--0--0-0-0-|

|----------------------------------0-0-0----0-0-0---------------------------------|
|-----0-------0-0-0-------0-0-0----0-0-0-0--0-0-0-0----0-0-0-----0-0-0-0-----0-0--|
|-----2-------4-4-4-------5-5-5----0-0-0-5--0-0-0-5----9-9-9-----9\7-7-7-----7\2--| play
|-----0-------0-0-0-------0-0-0----------0--------0----0-0-0-----0-0-0-0-----0-0--|
|-----0-------0-0-0-------0-0-0----------0--------0----0-0-0-----0-0-0-0-----0-0--| 3 times
|-2-2-2-----2/4-4-4-----4/5-5-5----------5--------5--5/9-9-9-----9\7-7-7-----7-2--|

|------------------------------|
|-2-----4-----5-----7----------|
|-0-----0-----0-----0----------|
|-0-----0-----0-----0----------|
|-0-----0-----0-----0----------|
|-2-----4-----5-----0----------|

|-10h12-12-12-12-10h12p10-10--10--10---10h12-12-12-12-10h12p10-10--10--10--|
|--0-----0--0--0--0-------12--11--12----0-----0--0--0--0-------12--11--11--|
|--0-----0--0--0--0--------0---0---0----0-----0--0--0--0--------0---0--12--|
|--0-----0--0--0--0--------0---0---0----0-----0--0--0--0--------0---0---0--|
|--0-----0--0--0--0--------0---0---0----0-----0--0--0--0--------0---0---0--|
|--0-----0--0--0--0--------0---0---0----0-----0--0--0--0--------0---0---0--|

|-10h12-12-12-12-10h12p10-10--10--10---10--10--10-10-10--|
|--0-----0--0--0--0-------12--11--12---12--11--11-11-12--|
|--0-----0--0--0--0--------0---0---0----0---0--12--0--0--|
|--0-----0--0--0--0--------0---0---0----0---0---0--0--0--|
|--0-----0--0--0--0--------0---0---0----0---0---0--0--0--|
|--0-----0--0--0--0--------0---0---0----0---0---0--0--0--|

|-10h12-12-12-12-10h12p10-10--10--10-----------------------|
|--0-----0--0--0--0-------12--10--12---12--11--9--7--5--0--|
|--0-----0--0--0--0--------0---0---0----0---0--0--0--0--0--|
|--0-----0--0--0--0--------0---0---0---12--11--9--7--5--0--|
|--0-----0--0--0--0--------0---0---0----0---0--0--0--0--0--|
|--0-----0--0--0--0--------0---0---0----0---0--0--0--0--0--|

|-10h12-12-12-12-10h12p10-10--10--10---10h12-12-12-12-10h12p10-10--10--10--|
|--0-----0--0--0--0-------12--10--12----0-----0--0--0--0-------12--11--11--|
|--0-----0--0--0--0--------0---0---0----0-----0--0--0--0--------0---0--12--|
|--0-----0--0--0--0--------0---0---0----0-----0--0--0--0--------0---0---0--|
|--0-----0--0--0--0--------0---0---0----0-----0--0--0--0--------0---0---0--|
|--0-----0--0--0--0--------0---0---0----0-----0--0--0--0--------0---0---0--|

|-10h12-12-12-12-10h12p10-10--10--10---10--10--10-10-10--|
|--0-----0--0--0--0-------12--11--12---12--11--11-11-12--|
|--0-----0--0--0--0--------0---0---0----0---0--12--0--0--|
|--0-----0--0--0--0--------0---0---0----0---0---0--0--0--|
|--0-----0--0--0--0--------0---0---0----0---0---0--0--0--|
|--0-----0--0--0--0--------0---0---0----0---0---0--0--0--|

|-----12---------10---------7---------8---------12---------10---------7---------3-----|
|------0----------0---------0---------0----------0----------0---------0---------0-----|
|-----12---------10---------7---------9---------12---------10---------7---------4-----|
|-------------------------------------------------------------------------------------|
|-------------------------------------------------------------------------------------|
|-0-0--------0-0--------0-0-------0-0-------0-0--------0-0--------0-0-------0-0-------|

|-----12---------10---------7---------8---------12---------10---------7---------------|
|------0----------0---------0---------0----------0----------0---------0---------------|
|-----12---------10---------7---------9---------12---------10---------7---------------|
|-------------------------------------------------------------------------------------|
|-------------------------------------------------------------------------------------|
|-0-0--------0-0--------0-0-------0-0-------0-0--------0-0--------0-0-----------------|

|--------------------------------------------------------------------|
|-------0-----------0------------------------------------------------|
|-------0-----------0-------------------------------0----------------|
|-------0-----------0---------------4p0---0h4p0-4h5---4p0---0h4p0----|
|-------0-----------0---------0h4h5-----0-----------------0-------5--|
|-0h4-4-4-----4/5-5-5-----0-0----------------------------------------|

|--------------------------------------------------------------------|
|-------0-----------0---------------------------------------------0--|
|-------0-----------0-------------------------------0-4p0---0h4h5----|
|-------0-----------0---------------4p0---0h4p0-4h5-------0----------|
|-------0-----------0---------0h4h5-----0----------------------------|
|-0h4-4-4-----4/5-5-5-----0-0----------------------------------------|

|-
|-------0-----------0---------------4p0---0h4p0-4/7---0h4p0-0h4p0----|
|-------5-----------4---------0h4h5-----0-----------0-------------5--|
|-------0-----------0------------------------------------------------|
|-------0-----------0------------------------------------------------|
|-0h4-4-4-----4/5-5-5-----0-0----------------------------------------|

|-----------------------------------------------|
|-------0-----------0-----0-0-0-----0-----0-----|
|-------5-----------4-----5-5-5-----7-----9-----|
|-------0-----------0-----0-0-0-----0-----0-----|
|-------0-----------0-----0-0-0-----7-----9-----|
|-0h4-4-4-----4/5-5-5-----0-0-0-----0-----0-----|

|----------------------------------------------------------|
|-0-----0-----0-----0-----0-----0-----4-4h5-4-4-4-4h5p4-0--|
|-0-----0-----0-----0-----0-----0-----0-0---0-0-0-0-----0--|
|-0-----5-----0-----7-----0-----5-----0-0---0-0-0-0-----0--|
|-0-----5-----0-----7-----0-----5-----0-0---0-0-0-0-----0--|
|-0-----5-----0-----7-----0-----5-----0-0---0-0-0-0-----0--|

|----------------------------------------------------------|
|-0-----0-----0-----0-----0-----0-----4-4h5-4-4-4-0-0-0-0--|
|-0-----0-----0-----0-----0-----0-----0-0---0-0-0-4-4-4-5--|
|-0-----5-----0-----7-----0-----5-----0-0---0-0-0-0-0-0-0--|
|-0-----5-----0-----7-----0-----5-----0-0---0-0-0-0-0-0-0--|
|-0-----5-----0-----7-----0-----5-----0-0---0-0-0-0-0-0-0--||
comments
print report bad tab
39 comments total. Showing first comments. show 2 bad comments
+19 reply
Metatron wrote on July 3 2006, 01:00 am

No, I did not tab it from memory. It makes pleanty of musical sence. When I submitted this tab, it did have the tuning and the capo. It was edited out when I submitted it.

I have already posted about this in the forum, and if you'll just be patient it should be edited soon.

The tuning is C Open. (CGCGCE) and it is capoed on the 4th fret.

I want to post or [tab]
guest
You may want to rate the tab now too:
select rating
Please do not post tabs as comments. Select "correction" instead!