Oops, an error
Loading. Please wait.

Fantasia In E Tab

497 views 1 this week
no commentswrite comment
1 2 3 4 5
please rate
add to favorites launch autoscroll
font size
0
reset
Autoscroll
+/-
esc
set tempo
stop
Contributor
WARNING: You are trying to view
                                    content from Ultimate-Guitar.com
                                    in an unauthorized application,
                                    which is prohibited.

                                    Please use an official Ultimate
                                    Guitar Tabs application for iPhone,
                                    iPad or Android to access legitimate
                                    chords, guitar, bass, and drum tabs
                                    from Ultimate-Guitar.com database.

                                    Type "ultimate guitar tabs" in Apple
                                    App Store's or Android Market's
                                    search to find the application.
Fantasia - John Dowland (1561-1626)
2 versions - 1st by Tony Monaghan, 2nd anon
******************************************************************************

#----------------------------------PLEASE NOTE--------------------------------#
#This file is the author's own work and represents their interpretation of the#
#song. You may only use this file for private study, scholarship, or research.#
#-----------------------------------------------------------------------------#

===============================================================================
         Title : Fantasia
        Artist : John Dowland
Transcribed by : Tony Monaghan          tony@pcdoctor-uk.com
===============================================================================

Note the lute tuning (G to F#), and the change to 6/8 time at measure 75
Suggested tempo is 100 quarter notes per minute.

E |-7-----4------7--|--5------4-------2--|--0------4-------2-------0---|
B |-----------------|--------------------|-----------------------------|
F#|-----------------|--------------------|-----------------------------|
D |-----------------|--------------------|-----------------------------|
A |-----------------|--------------------|-----------------------------|
E |-----------------|--------------------|-----------------------------|

E |--------2----------0---------------|---------------0----------0--2--|
B |-------------4------------------4--|--2---------4---------4---------|
F#|--5----------------2------5--------|--3------------2-------------0--|
D |-----------------------------------|--------------------------------|
A |-----------------------------------|--------------------------------|
E |-----------------------------------|--------------------------------|

E |--------4---5------4---2-|--4---------5---7------------5------------|
B |-------------------------|--0--------------------5-----2------4-----|
F#|-------------------------|------------------------------------------|
D |-------------------------|--2--------------------6-----4------------|
A |-------------------------|------------------------------------------|
E |-------------------------|------------------------------------------|

E |-4----------|--2--------------------2-----0-------------------------|
B |-5----------|--0---------------------------------0-------------3----|
F#|------------|--0----------------------------------------------------|
D |-2----------|------------2---1------------2-------------0-----------|
A |------------|--2----------------------------------------2-----------|
E |------------|-----------------------------4-------------------------|

E-|-----------------------------------------------------|--0-----------|
B-|---2------------0---------------------0--2------4----|--------------|
F#|----------------------------3------------------------|--2------3----|
D-|----------2-----2-----------4------------------------|--------------|
A-|---0------------------------3------------0-----------|--2-----------|
E-|----------------3-----------2------------------------|--0-----------|

E |-----------------------------0----------|---------------------------|
B |--0------2-----4------2---4--0----------|-----------------4---------|
F#|---------------3-------------2----------|---0-------------0---------|
D |--2-------------------------------------|----------2----------------|
A |----------------------------------------|---2-----------------------|
E |--3------------2-------------0----------|---------------------------|

E |---0----------------------|-----------------------------------------|
B |---------------0----------|--------------0--------------------------|
F#|--------------------------|--2-----------------------3-----------2--|
D |---2----------------------|--------------2-----------------------2--|
A |--------------------------|--------------------------3--------------|
E |---0----------------------|-----------------------------------------|

E |---------|------------------------------------------------------|--0-|
B |---------|------------------------------------0-----2------4----|--0-|
F#|---------|---0-------------------2-----3------------------------|----|
D |---------|----------------1-------------------------------------|--2-|
A |---------|-----------------------------3------------0-----------|--2-|
E |---------|------------------------------------------------------|----|

E |------2-----4------0-----5------------4----------|-----------------2-|
B |-------------------5-----2------4-----5----------|----------4------2-|
F#|--------------------------------------5----------|-------------------|
D |-------------------------------------------------|-------------------|
A |-------------------------------------------------|---0---------------|
E |------------0------------2------------4----------|-------------------|

E |-----------4--------------------4----|----------------0------------2-|
B |-----------4-------------------------|---2---------------------------|
F#|-----------7---------7---6-----------|---2-------------------------0-|
D |-------------------------------------|-------------------------------|
A |-------------------------------------|---4-------------------2-----0-|
E |-----------4-------------------------|-------------------------------|

E |------------4----------|--5--------------------5-----4------------2-|
B |------------0----------|-----------------------------0---------5--4-|
F#|-----------------------|--3---------------------------------------3-|
D |------2-----2----------|--2---------2----------------2--------------|
A |-----------------------|----------------5---------------------------|
E |------------4----------|--2--------------------------0------------2-|

E |-----------|---------0------0---------------------------------------|
B |------2----|--0------------------------------5---4---2---4---5------|
F#|-----------|--2--------------------------------------------------3--|
D |-----------|-----------------------------4--------------------------|
A |-----------|-----------------------0-----2--------------------------|
E |-----------|--4-----------------------------------------------------|

E |----|--0-----------------------------------0----------|-------------|
B |--4-|--0-----------2-----------4----------------------|--4----------|
F#|----|--2----------------------------------------------|--0------1---|
D |----|--------------------------------------2----------|-------------|
A |----|-------------------------------------------------|-------------|
E |----|--0----------------------------------------------|-------------|

E |-------------------------------------0----|--2------4------5--------|
B |---2------------0-------------------------|-------------------------|
F#|---3-------------------3------2-----------|--0----------------------|
D |------------------------------------------|-------------------------|
A |------------------------------------------|-------------------------|
E |------------------------------------------|-------------------------|

E |-----5------4----------|---2--------------------------0-------------|
B |------------5----------|----------5------4--------------------------|
F#|-----------------------|-----------------5------------3-------------|
D |-----------------------|-------------------------------------1------|
A |-----------------------|---2--------------------2-----4-------------|
E |-----------------------|--------------------------------------------|

E |------------|------------------------2-----4------5------7----------|
B |------------|---0--------------------------0--------------------0---|
F#|-2----------|---0----------------------------------------0----------|
D |-2----------|----------2------1------------2------------------------|
A |------------|--------------------------------------------5----------|
E |------------|-------------------------------------------------------|

E |--|-----------------6-----------7-------------------------|---------|
B |--|----------4------5-------------------------------10----|--9------|
F#|--|---7------------------------10--------10---9-----------|-10------|
D |--|-------------------------------------------------------|---------|
A |--|---4---------------------------------------------------|---------|
E |--|-----------------------------7-------------------------|--0------|

E |--------0------2---4--5--------------------4----|--2-------------2--|
B |-7-------------4------2------0------2-----------|--4------5---------|
F#|------------------------------------------------|--5----------------|
D |------------------------------------------------|-------------------|
A |----------------------0-------------------------|--2----------------|
E |------------------------------------------------|-------------------|

E |----4---5--7-------------5-----------|---4-------------2------------|
B |------------------5-------------4----|----------2-------------0-----|
F#|-------------------------2-----------|------------------------------|
D |-------------------------------------|---2-------------1------------|
A |----0--------------------------------|------------------------------|
E |-----------4-------------------------|------------------------------|

E |--2------0----|--4------------2--------------------0------0---------|
B |--------------|--0------------0-------------------------------------|
F#|--4-----------|----------------------3------2-------------0---------|
D |--------------|--1-----------------------------------------------2--|
A |--------------|--2--------------------------2-----------------------|
E |--------------|-----------------------------------------------------|

E |---|---------------------------------0----------------------|-------|
B |---|------5---4---2---4---5---2---4--------------0----------|-------|
F#|---|--------------------------------------------------------|-------|
D |---|------4---4----------------------2----------------------|---1---|
A |---|--2-----------------------------------------------------|-------|
E |---|---------------------------------0----------------------|-------|

E |------------------------------------------|-------------------------|
B |------------------------0-----------------|-------------------------|
F#|----0------3-------------------2----------|----------0--------------|
D |------------------------------------------|----------------1--------|
A |------------------------------------------|---2-------------------2-|
E |------------------------------------------|-------------------------|

E |------------------------------|-------------------------------------|
B |------------------------------|-----------------------------0-------|
F#|-------------------------0----|--2------0------2------3-----0-------|
D |-----2-------------------1----|--2--------------------------1-------|
A |-----4------2------4----------|-------------------------------------|
E |------------------------------|-------------------------------------|

E |------------------|----------------------------0--------------------|
B |-------------0----|--2------0------2-----4--------------------------|
F#|------------------|--3-------------------3-----2------0------2------|
D |------------------|--4-------------------4-----2--------------------|
A |------2-----------|-------------------------------------------------|
E |------------------|-------------------------------------------------|

E |------|-----------------------0-----2-------------------------|--0--|
B |------|--4------0------4------------2--------------------0----|--2--|
F#|-3----|--5--------------------------3------0------3-----------|-----|
D |------|-------------------------------------------------------|-----|
A |------|-------------------------------------------------------|-----|
E |------|-------------------------------------------------------|-----|

E |-----5----------5---4----------4---2---------4---0----|-------0-----|
B |------------0--------------2-------------0------------|-----------4-|
F#|---------------------------3-------------2------------|---3---------|
D |------------------------------------------------------|---4---------|
A |------------------------------------------------------|-------------|
E |------------------------------------------------------|-------------|

E |-----------0----------0-------------------------|-------------------|
B |---2---4-------2---4----------------------------|--0-----2-----4----|
F#|-----------------------------0------2------3----|--------------0----|
D |----------------------2-------------------------|-------------------|
A |------------------------------------------------|--------0-----2----|
E |------------------------------------0------2----|--4----------------|

E |--0-----2-----------0----------|---------2--------------2------------|
B |--------0-----4-----------2----|--4-----------------2--------------4-|
F#|-------------------------------|--0----------------------------------|
D |--------1----------------------|-------------------------------------|
A |--4-----------2-----4-----1----|--2-------------1--------------2-----|
E |-------------------------------|-------------------------------------|

E |---2----------0---------|-------------------------------------------|
B |------------------4---2-|--4---2---0------0---2---4---0--2---0---2--|
F#|------------------------|--------------4----------------------------|
D |------------------------|-------------------------------------------|
A |------------------------|--2-----------------------------0----------|
E |----------2-------------|-----------------4-------------------------|

E |-----0---2---4---0-|--2------------------------------0---------------|
B |--4----------------|------5---4---2---5---4---5---4----------------0-|
F#|-------------------|---------------------------------2-------------2-|
D |-------------------|----------------------------------------2--------|
A |-----4-------------|--2----------------------------------------------|
E |-------------------|---------------------------------0---------------|

E |-----------|-------------------------------------0-------0-------0--|
B |-----------|--0-------------0--------------------------------0------|
F#|-----------|--0-------------0-------------3------2---0---2-------4--|
D |------2----|--1---------------------1-------------------------------|
A |-----------|---------2----------4---------4-------------------------|
E |-----------|--------------------------------------------------------|

E |---|-------------------------------------9------9------9----|--7----|
B |---|--4------0----------2---4-------------------------------|-------|
F#|---|--5----------------------------------0------------------|-------|
D |---|--------------------------------------------------------|-------|
A |---|--2---------------------------0-------------------------|-------|
E |---|----------------4---------------------------------------|--4----|

E |---4----------5---7-----5------2------5-----------|--4---------------|
B |------------------------2-------------2-----------|--2-------------2-|
F#|--------------------------------------------------|----------------2-|
D |------------------------4--------------------4----|--2---------------|
A |--------------------------------------------------|---------4--------|
E |----------0-------------2-------------------------|------------------|

E |------5-------------4------2-----------|----------------------------|
B |---------------------------------------|--6-----7----------7---5----|
F#|-------------0-------------------------|----------------------------|
D |-------------0--------------------0----|--6-----4------6------------|
A |---------------------------------------|--4------------4------------|
E |---------------------------------------|----------------------------|

E |---------2------2------2----|-------------0--2-------------------0--|
B |----------------------------|--4--------------------------0---------|
F#|--4-------------------------|--0------0------0------------2---------|
D |--4-------------------------|-----------------------1---------------|
A |--4-------------------------|---------2------2------2---------------|
E |--2-------------------------|-----------------------------4---------|

E |-------------------|------------------------------------------------|
B |----------5---4----|------------------------------------------------|
F#|-------------------|---------2------0------3-----2------------0-----|
D |------4------------|---------2-------------1------------2-----------|
A |--0---2------------|------------------------------------------2-----|
E |-------------------|--0--------------------------0------------------|

E |-------|---------4------2------5-----2-----------|------------------|
B |-------|---------0--------------------------4----|---------0--------|
F#|-------|-----------------------------------------|----------------0-|
D |--1----|---------2-------------1-----------------|---------2------1-|
A |-------|-----------------------------2-----------|------------------|
E |-------|--0--------------------------------------|--0---------------|

E |------------------------------------|--------7-----0-----5-----4----|
B |------------------------------------|--------------------4-----5----|
F#|------3-----2-----------0-----------|-------------------------------|
D |------------2-----2------------1----|-------------------------------|
A |------------------------2-----------|-------------------------------|
E |------------------------------------|--0-----4-----5-----2-----0----|

E |---0-----2-----------|--0-------------------------------------------|
B |----------------4----|---------0------------------------------------|
F#|---------------------|----------------0------3-----2------------0---|
D |---------------------|---------2------1-------------------2---------|
A |---------2-----------|------------------------------------------2---|
E |---------------------|--0--------------------------0----------------|

E |---------|---------9------7------5-----4------2---0--2-----------|--|
B |---------|-----------------------------0--------------------4----|--|
F#|---------|-------------------------------------------------------|--|
D |----1----|-------------------------------------------------------|--|
A |---------|-------------------------------------------2-----------|--|
E |---------|--0--------------------------0-------------------------|--|

E |-0----------------------------------------------------|--------0----|
B |--------2------0--------------------------------------|-------------|
F#|----------------------3-----2------0------0-----------|-------------|
D |---------------------------------------2---------1----|-------------|
A |------------------------------------------2-----------|-------------|
E |-0--------------------------0-------------------------|--0-----4----|

E |--2---4---5---2--4------0-----2-----------|--0----------------------|
B |-------------------------------------4----|-------------------------|
F#|------------------------------------------|---------------0---2---3-|
D |------------------------------------------|---------2-----1---------|
A |------------------------------2-----------|-------------------------|
E |--2--------------0------------------------|--0----------------------|

E |-------------------------------|--------0-----2---4---5--7--4------0-|
B |-------------------------------|-------------------------------------|
F#|---0--2------------0-----------|-------------------------------------|
D |-------------2------------1----|-------------------------------------|
A |-------------------2-----------|-------------------------------------|
E |------0------------------------|--0-----4-----2-------------0--------|

E |-----2-----------|--0-----------------------------------------------|
B |------------4----|---------------------------0----------------------|
F#|-----------------|---------------0---2---3------2------------0------|
D |-----------------|---------2-----1---------------------2------------|
A |-----2-----------|-------------------------------------------2------|
E |-----------------|--0---------------------------0-------------------|

E |------|--------0-----2---4---5---2--4------0-----2-----------|--0---|
B |------|-------------------------------------------------4----|------|
F#|------|------------------------------------------------------|------|
D |-1----|------------------------------------------------------|------|
A |------|------------------------------------------2-----------|------|
E |------|--0-----4-----2--------------0------------------------|--0---|

E |--------------------------------------------------|------0----------|
B |--------------------------------------------------|------0----------|
F#|----------0---2---3---0--2------------0-----------|------2-------0--|
D |----2-----1---------------------2------------1----|----------2------|
A |--------------------------------------2-----------|-----------------|
E |-------------------------0------------------------|--0--------------|

E |-----------------------------------------------|--------------------|
B |----------0---2--0-----------------------0---2-|--4---0---0---2---4-|
F#|--2---3----------------------0---2---3---------|--------------------|
D |---------------------2---2---------------------|--------------------|
A |-----------------------------------------------|--2-----------------|
E |-----------------0-----------------------------|--------------------|

E |---0---2---4--2-------------------0---2---4-|--5---------------------|
B |------------------0---0---2---4-------------|--------------0---2---2-|
F#|--------------------------------------------|------3---3-------------|
D |--------------------------------------------|------------------------|
A |--------------2-----------------------------|--0---------------------|
E |--------------------------------------------|------------------------|

E |----------0-----------------------0---2-|--4---2---0-------0---2---4-|
B |---2---4--------------0---2---4---------|--------------4-------------|
F#|--------------3---3---------------------|----------------------------|
D |----------------------------------------|----------------------------|
A |----------0-----------------------------|----------------------------|
E |----------------------------------------|--0-------------------------|

E |---2--4---0---2---4---2-------0---2-|--0-------0---2---4---2---4---0-|
B |--------------------------4---------|------4-------------------------|
F#|------------------------------------|--------------------------------|
D |------------------------------------|--------------------------------|
A |------------------------------------|--4-----------------------------|
E |------0-----------------------------|--------------------------------|

E |--2---0---2---4---2---0---------|--------------0--------------------|
B |--------------------------4---2-|--4---2---4-------4---2---0------0-|
F#|--------------------------------|------------------------------4----|
D |--------------------------------|-----------------------------------|
A |--0-----------------------------|--2--------------------------------|
E |--------------------------------|---------------------------------4-|

E |-----------------------------|------------------0-------0------------|
B |-------0---2---4---2---4---0-|--2---0---2---4-------4-------2--4---2-|
F#|---4-------------------------|---------------------------------------|
D |-----------------------------|---------------------------------------|
A |-----------------------------|--0------------------------------2-----|
E |-----------------------------|---------------------------------------|

E |-------0---2---0---2-----|--0-------0---2---3---2---0------0---2---4-|
B |---4-------------------4-|------4-----------------------4------------|
F#|-------------------------|-------------------------------------------|
D |-------------------------|---------------------------------2---------|
A |-------------------------|-------------------------------------------|
E |-------------------------|--0----------------------------------------|

E |---0--2-------0---2-|--0---2---4---0--5---4---2---0-----------------|
B |----------4---------|--------------------------------4---2---0------|
F#|--------------------|--------------------------------------------4--|
D |--------------------|-----------------------------------------------|
A |------2-------------|--4--------------0--------------2--------------|
E |--------------------|-----------------------------------------------|

E |---------------|-----------------0---2---4---0--2-------------------|
B |-0---2---4---0-|--2---0---2---4---------------------5---4---2---5---|
F#|---------------|----------------------------------------------------|
D |---------------|----------------------------------------------------|
A |---------------|--0--------------4--------------2-------------------|
E |-4-------------|----------------------------------------------------|

E |-----------|-------------------------------------------------------|
B |-4---5---2-|-------------------------------------------------------|
F#|-----------|---------2------------0------2------------0------------|
D |-----------|---------2------------1------2------2------------1-----|
A |-----------|------------------------------------------2------------|
E |-----------|--0----------------------------------------------------|

E |---------4------------2------4------0-----2-----------|-------------|
B |---------0-------------------0-------------------4----|-------------|
F#|------------------------------------------------------|---------3---|
D |---------2------------1------2------------------------|---------4---|
A |------------------------------------------2-----------|-------------|
E |--0---------------------------------------------------|--2----------|

E |----------------------------------------|---------5------------4----|
B |----------------------------------------|---------2-----------------|
F#|----------2-----3-----0-----2-----------|---------------------------|
D |----------3-----4------------------2----|---------4------------3----|
A |----------------------------4-----------|---------------------------|
E |----------------------------------------|--2------------------------|

E |--5-----2-----4-----------|---------4---------4---2---------4---0---|
B |--2------------------6----|---------0-------------------------------|
F#|--------------------------|-----------------------------------------|
D |--4-----------------------|---------2-------------1-------------2---|
A |--------------4-----------|-----------------------------------------|
E |--------------------------|--0--------------------------------------|

E |---------------|---2----------0-------------------------------------|
B |---4------0----|------------------4---2---0------4---2---4---0--2---|
F#|---0-----------|------------------------------4---------------------|
D |---------------|----------------------------------------------------|
A |---2-----------|----------2----------------------2--------------1---|
E |---------------|----------------------------------------------------|

E |--|-----------------------------------------|----------------------0-|
B |--|--4------2------------4------0-----------|--0------4-----2--------|
F#|--|--0--------------------------------------|------------------------|
D |--|-----------------------------------------|------------------------|
A |--|--2-------------1-----2------------------|---------------0--------|
E |--|------------------------------------4----|--4---------------------|

E |----------|--0------4-----2-----4------0-----------|--0------4-----2-|
B |-----4----|--0-------------------------------------|-----------------|
F#|----------|----------------------------------------|-----------------|
D |----------|--2------------1-----2------------------|---------------0-|
A |-----2----|-----------------------------------4----|--4--------------|
E |----------|----------------------------------------|-----------------|

E |------5-----4----|--5------0------------0------5------0----|--0-----|
B |-----------------|-----------------------------------------|--------|
F#|-----------------|-----------------------------------------|--------|
D |------------2----|-----------------------------------------|--------|
A |-----------------|--0-------------4-----4------------------|--4-----|
E |-----------------|-----------------------------------------|--------|

E |--2-----0------------------|---------2------------------------------|
B |---------------2-----------|--4-------------------4------0-----2----|
F#|---------------------------|----------------------0-----------------|
D |---------------------------|--4-------------------------------------|
A |--------4-------------0----|--2-------------------2-----------------|
E |---------------------------|----------------2------------------2----|

E-|---------2-----------------0----------|--4----------------------------|
B-|--4------------------0-----------4----|-------------------------------|
F#-|---------------4-----2-----------0----|------------------------------|
D-|--4-----------------------------------|---------2------2------2-------|
A-|--2------------------------------2----|-------------------------------|
E-|---------------2-----4-----0----------|--0----------------------------|

E |--------------|--4-----------|----0-----0---------------------------|
B |--------------|--------------|----------------3-----2-----2-----0---|
F#|--------------|--------------|--------------------------------------|
D |--2------2----|--------------|--------------------------------------|
A |--------------|--------------|----4-----4-----2-----0-----0---------|
E |--------------|---------0----|----------------------------------4---|

E |----0-----0--------------------------|----0-------------------------|
B |----------------------2-----2-----0--|----2-----0-----2-----0-----2-|
F#|----3-----3-----2--------------------|------------------------------|
D |-------------------------------------|------------------------------|
A |----4-----4-----2-----0-----0--------|----0-----------0-----------0-|
E |----------------------------------4--|----------4-----------4-------|

E |--------|----------------------------------------|-----------0------|
B |-----0--|----2-----0-----2-----0----------2------|-----------0------|
F#|--------|-------------------------------------3--|-----------3------|
D |--------|----------------------------------------|-----------2------|
A |--------|----0-----------0------------0----------|------------------|
E |-----4--|----------4-----------4-----------------|----0-------------|

E |--------------0-|-*-|
B |--------------0-|-*-|
F#|-2------0-----2-|-*-|
D |--------------2-|-*-|
A |--------------2-|-*-|
E |--------------0-|-*-|

******************************************************************************
******************************************************************************

Fantasia - John Dowland

E||--7-------------7----|--5----4----2--------|--0----4----2----0----|
B||-----------9---------|---------------------|----------------------|
G||---------------------|---------------------|----------------------|
D||---------------------|---------------------|----------------------|
A||---------------------|---------------------|----------------------|
E||---------------------|---------------------|----------------------|

-----2-------0----------|--------0----0-2---4-5--4-2-|--4---5-7--0--5-----4----|
--0-----4---------0--4--|--2---4----4----------------|--0--------------4--5----|
-------------1----------|--2-----1-------------------|--------------6----------|
------------------------|---------------4------------|--2--------6--4-----2----|
------------------------|----------------------------|-------------------------|
------------------------|----------------------------|-------------------------|

--2--------2--0-----------|-------------------------|--0------------------0----|
-----------------0-----3--|--2-----0--------0-2--4--|--------0--2--4--2-4-0----|
--------------------------|-------------2-----------|--1--2--------2------1----|
--4---2-1-----2-----4-----|-----2--2----4-----------|--------2-----------------|
--2-----------------2-----|--0----------------0-----|--2-----------------------|
--------------4-----------|--------4----2-----------|--0-----4-----2------0----|

-------------0---------|----------------------|-------------------------|
--------4---------0----|-------0--------------|----------------0--2--4--|
-----------------------|--1---------2----1----|----------1--2-----------|
--4--2--4----2---------|-------2---------2----|--4----1-----------------|
--2--------------------|------------4---------|-------------4-----0-----|
-------------0---------|----------------------|-------------------------|

--0--2--4--0--5-----4----|--------2----4--------4--|-------0-----2-----4----|
--0-----------2--4--5----|-----4--2----4---2-1-----|-------------------0----|
--------------------4----|-------------6-----------|--6---------------------|
--2----------------------|-------------------------|--6----------4--2--2----|
-------------------------|--0----------------------|--4-------2--0----------|
--4-----0-----2-----4----|-------------4-----------|-------------------4----|

--5--------5--4---0-2-----|-----0--0-------0-------0-----|
--------------0-----4--2--|--0---------------4-2-4-----4-|
--2-----------------2-----|--------------------------2---|
--2---2-1-----2-----------|--6-----------4---------------|
--------------------------|-----------0--2---------------|
--2-----------0-----2-----|--4---------------------------|

--0---------------0----|----------------------0--|--2--4--5-------5--4----|
--0----0----2--4-------|--4-----2----0-----------|-------------------5----|
--1--------------------|-----1--2-------2--1-----|------------------------|
------------------2----|--4----------------------|--4----------2----------|
-----------------------|-------------------------|------------------------|
--0--------------------|-------------------------|------------------------|

--2--0--------0----------|-----------2--4--5--7----|--------6----7---0----5--|
--------4----------------|--0-----------0----------|-----4--5----5-----4-----|
--------4-----2-----1----|-------------------------|--6----------------------|
-----------------1--2----|--4--2--1-----2-----4----|-------------------------|
--2--------2--4----------|--------------------6----|--4----------------------|
-------------------------|-------------------------|-------------7-----------|

--4--2--0--2-4-5--------4--|--2--0--2--4-5-7--0--5-----|
--5--------4------0--------|--4---------------------4--|
---------------6-----6-----|--4------------------------|
---------------------------|---------------------------|
---------------0-----------|--2--------0---------------|
--0------------------------|---------------4-----2-----|

--4-----2-----0--4--2--0--|--4----2--------0--0-----|
-----2-----0--------------|--0----0-----------------|
--------------------3-----|----------2--1-----------|
--------1-----------------|--1----------------4--2--|
--------------4-----------|--2----------2-----------|
--0-----------------------|-------------------------|

----0-------0-----0---------|------------------------|
------4-2-4---2-4------0----|----------------0-------|
----------------------------|--------2----------1----|
----4-------------2---------|--1--4-------2----------|
--2-------------------------|------------------------|
------------------0---------|------------------------|

--------------------------|-------------------------|--------------0-----------|
--------------------------|--------------0-------0--|--2--0--2--4--------------|
--------------------------|-------------------------|--2--------2--1-----1--2--|
-----4--1-----2--------4--|--6--4--6--7--4----------|--4--------4--2--4--------|
--2--------2--4--2--4--6--|--7-----------6----------|--------------------------|
--------------------------|-------------------7-----|--------------------------|

-----------0--2-----------|--0--5----5-4----4-2----2-0--|
--4--0--4-----2--------0--|--2-----0------2------0------|
--------------2-----2-----|---------------2------1------|
-----------------4--------|-----------------------------|
--------------------------|-----------------------------|
--------------------------|-----------------------------|

----0-------0-----0-----------|-----------0--2-----0-----|
------4-2-4---2-4-------------|--0--2--4-----0--4-----2--|
--2---------------------1--2--|--------------------------|
--4---------------2--4--------|--------4-----1-----------|
------------------------------|-----0--2--4-----2--4--1--|
------------------------0--2--|--4-----------------------|

-----2------2------2--2-0-----|--------------------------0-2-4-0-|
--4-------2------4--------4-2-|--4-2-0---0-2-4-0-2-0-2-4---------|
------------------------------|--------3-------------------------|
--4---------------------------|----------------------------------|
--2-----1------2--------------|--2---------------0-------4-------|
----------------------2-------|----------4-----------------------|

--2-0-----0---0---0-------0-----------|------------------0---0---0--|
------4-2---4---4---4-2-4-0-----0-----|--0-----0---------------0----|
--------------------------1-----1-----|---------------2--1---1---3--|
-----------------------------2-----2--|--4-----4---1-------4--------|
--2-----------------------------------|--6--2----4----4-------------|
--------------------------0-----------|-----------------------------|

------------------9--9--9--|--7--4----5-7--5--2--5-----|
--4--0----2-4--------------|---------------2-----------|
--4------------------------|---------------------6-----|
---------------------------|---------------4--------4--|
--2------------0--9--------|---------------------------|
--------4------------------|--4-----0------2-----------|

--4--------5-----4--2-----|-----2----2-1-----2--2--2--|
--2-----2-----------------|--6------------------------|
--------1-----------------|---------------3-----------|
--2-----------4--------0--|--6--4--6------4-----------|
-----4--------5-----------|--4-----4------4-----------|
--------------------------|---------------2-----------|

-------0-2--------0-----0----|--------------------------|
--4------------0----------4--|--------------------------|
---------------1-------------|-----1-----2--1-----------|
--4--4---4--1---------4------|-----2--4--1-----2--4--1--|
-----2---2--2-------0-2------|--------------------2-----|
---------------4-------------|--0-----------0-----------|

-----4--2--5--4--0--2-----|--------------------------|
-----0--------0--------4--|-----0--------------------|
--------------------------|-----------2--1-----------|
-----2--------2-----------|-----2--4-----2--2--4--1--|
-----------6--------2-----|--------6-----------2-----|
--0-----------------------|--0-----------------------|

-----7--0--5--4--0--2-----|--0-----------------------|
-----------4--5--------4--|-----0--------------------|
--------------------------|-----------2--1-----------|
--------------------------|-----2--4--------2--4--1--|
--------0-----------2-----|--------6-----------2-----|
--0--4-----2--0-----------|--0-----------0-----------|

-----9--7--5--4--2-0-2-----|--0------------------------|
------------------------4--|-----2--0------------------|
--------------4------------|-----------2--1------------|
---------------------------|-----------------4-2-4--1--|
---------------------2-----|---------------------2-----|
--0-----------0------------|--0-----------0------------|

-----0--2-4-5-2-4--0--2-----|--0-------------------------|
-------------------------4--|----------------------------|
----------------------------|----------------------------|
----------------------------|-----2--4-6-7-4-6-----------|
----------------------2-----|--------6----------7--9--6--|
--0--4--2-------0-----------|--0-------------0-----7-----|

-----0--2-4-5-7-4--0--2-----|--0-------------------------|
-------------------------4--|--------------0-------------|
----------------------------|----------------1-----------|
----------------------------|-----2--4-6-7------2--4--1--|
----------------------2-----|--------6-------------2-----|
--0--4--2-------0-----------|--0-------------0-----------|

-----0--2-4-5-2-4--0--2-----|--0-------------------------|
-------------------------4--|----------------------------|
----------------------------|----------------------------|
----------------------------|-----2--4-6-7-4-6-----------|
----------------------2-----|--------6----------7--9--6--|
--0--4--2-------0-----------|--0-------------0-----7-----|

----0-----------------------------|------------0-2-4-2---------0-2-4-|
----0---------0-2-0-----------0-2-|--4-0-0-2-4---------0-0-2-4-------|
----1-----1-2-------------1-2-----|----------------------------------|
------2-4-----------2-2-4---------|----------------------------------|
----------------------------------|--2---------------2---------------|
--0---------------0---------------|----------------------------------|

--5---------------0-----------0-2-|--4-2-0---0-2-4-2-4-0-2-4-2---0-2-|
--------0-2-2-2-4-------0-2-4-----|--------4-------------------4-----|
----2-2-------------2-2-----------|----------------------------------|
----------------------------------|----------------------------------|
--0---------------0---------------|----------------------------------|
----------------------------------|--0---------------0---------------|

--0---0-2-4-2-4-0-2-0-2-4-2-0-----|--------0-------------------------|
----4-------------------------4-2-|--4-2-4---4-2-0---0---0-2-4-2-4-0-|
----------------------------------|----------------3---3-------------|
----------------------------------|----------------------------------|
--4---------------0---------------|--2-------------------------------|
----------------------------------|------------------4---------------|

----------0---0---------0-2-0-2---|--0---0-2-4-2-0---0-2-4-0-2---0-2-|
--2-0-2-4---4---2-4-2-4---------4-|----4-----------4-----------4-----|
----------------------------------|----------------------------------|
----------------------------------|------------------2---------------|
--0---------------2---------------|--------------------------2-------|
----------------------------------|--0-------------------------------|

--0-2-4-0-5-4-2-0-----------------|----------0-2-4-0-2-0-----0---0---0-------|
------------------4-2-0---0-2-4-0-|--2-0-2-4-------------4-2---4---4---4-2-4-|
------------------------3---------|------------------------------------------|
----------------------------------|------------------------------------------|
--4-------0-------2---------------|--0-------4-------2-----------------------|
--------------------------4-------|------------------------------------------|

-------------------------|-----4----2--4--0--2-----|-------------------------|
-------------------------|-----0-------0--------4--|-------------------------|
-----1-------1-----------|-------------------------|-----2----1--2-----------|
-----2----4--2--2--4--1--|-----2----1--2-----------|-----4----3--4--4--6--3--|
----------6--------2-----|-------------------2-----|-------------------4-----|
--0----------------------|--0----------------------|--0----------------------|

-----5----4--5--2--4--1--|-----4---4-2---4-0--------|
-------------------------|-----0--------------4--0--|
-----6-------6-----------|--------------------------|
-----4----3--4-----------|-----2-----1-----2--4-----|
-------------------4-----|--------------------2-----|
--2----------------------|--0-----------------------|

--2----0------------------------|--------------------|--------------0-----|
---------4-2-0---0-2-4-2-4-0-2--|--4--2-----4--0-----|-----4-----2-----4--|
---------------3----------------|--------------------|--4-----------------|
--------------------------------|--4-----------------|--------------------|
-----2---------------2-------1--|--2-----1--2--------|--------2--0-----2--|
--------------------------------|-----------------4--|--4-----------------|

--0--4--2--4--0-----|--0--4-----2--5--4--|--5--0-----0--5--0--|
--0-----------------|--------------------|--------------------|
--------------------|--------------------|--------------------|
--2-----1--2--------|--------2--1-----2--|--------------------|
-----------------4--|--4-----------------|--0-----4--4--------|
--------------------|--------------------|--------------------|

--0--2-----0--------|-----2--------------|-----2--------0-----|
--------------2-----|--4--------4--0--2--|--4--------0-----4--|
--------------------|--------------------|--------2-----------|
--------0-----------|--4--------4--------|--4--------6-----4--|
--4--------4-----0--|--2--------2--------|--2--------------2--|
--------------------|--------2--------2--|--------2--4--0-----|

--4-----------------|--4-----------------|--2-----------------|
--------------------|--------------------|--------------------|
--------------------|--------------------|--------------------|
-----2--2--2--2--2--|--------------------|--------------------|
--------------------|--------------------|--2--2--1--2--2-----|
--0-----------------|-----0--0--0--0--0--|-----------------2--|

--2-----------------|--7-----------------|--7-----------------|
--------------------|--------------------|--------------------|
--------------------|--------------------|--------------------|
--------------------|--------------------|--------------------|
--2--2-----2--2--0--|--------2--------2--|--------2-----------|
--------2-----------|--4--0-----4--0-----|--4--0-----4--0--0--|

--5-----------------|--5-----------------|--4-----------------|
--------------------|--------------------|--------------------|
--------------------|--------------------|--------------------|
--------------------|-----------------1--|--2--2--2-----------|
--0--0--0--0--0--2--|--4--4--2--4--4-----|--------------------|
--------------------|--------------------|-----------0--0--0--|

--4-----------------|--2-----------------|--2-----------------|
--------------------|--------------------|--------------------|
--------------------|--------------------|--------------------|
--------------------|--------------------|--------------------|
-----------------0--|--2--2--1--2--2-----|--0--0-----2--2--0--|
--0--0--2--4--4-----|-----------------2--|--------2-----------|

--0-----------------|--0-----------------|--0--0--------------|
--------------------|--------------------|--------3--2--2--0--|
--------------------|--------------------|--------------------|
--------------------|-----------2--2--0--|--------------------|
-----------0-----0--|--------------------|--4--4--2--0--0-----|
--4--0--4-----0-----|--4--4--0-----------|-----------------4--|

--0--0--------------|--0-----------------|---------------------|
--------3--2--2--0--|--2--0--2--0--2--0--|--2--0--2--0----2----|
--2--2--1-----------|--------------------|------------------2--|
--------------------|--------------------|---------------------|
--4--4--2--0--0-----|--0-----0-----0-----|--0-----0-----0------|
-----------------4--|-----4-----4-----4--|-----4-----4---------|

-----0---------------0--------|----------------|--------------||
-----0-------------0----------|----------------|--------------||
-----2--1--------1------------|----------------|--------------||
-----2-----4------------------|----------------|--------------||
---------------2--------------|----------------|--------------||
--0----------0----------------|----------------|--------------||

****************************************************************
****************************************************************
comments
We did not receive enough feedback on this tab! Please rate:
print report bad tab
1 2 3 4 5
I want to post or [tab]
guest
You may want to rate the tab now too:
select rating
Please do not post tabs as comments. Select "correction" instead!