Oops, an error
Loading. Please wait.

Lachrimae Tab

2,980 views 21 this week
1 commentread comment
1 2 3 4 5
excellent!
x 2
add to favorites launch autoscroll
font size
0
reset
Autoscroll
+/-
esc
set tempo
stop
Contributor
WARNING: You are trying to view
                                    content from Ultimate-Guitar.com
                                    in an unauthorized application,
                                    which is prohibited.

                                    Please use an official Ultimate
                                    Guitar Tabs application for iPhone,
                                    iPad or Android to access legitimate
                                    chords, guitar, bass, and drum tabs
                                    from Ultimate-Guitar.com database.

                                    Type "ultimate guitar tabs" in Apple
                                    App Store's or Android Market's
                                    search to find the application.
Lachrimae - John Dowland (1561-1626)

TablEdited by Thomas J Kelly

Tuning : E A D G B E   -   Time Signature: 4/4


 |       |       |       |        |       |       |       |        
|0-----------------------3-------|----5-3-2-----------------------|
|0-----------3-1-0-------0-------|------------5---4---------------|
|0---------------0---2-----------|5-------2-----------------------|
|--------2---4-------------------|5---------------4---------------|
|--------------------------------|3---------------2---------------|
|0---------------0---------------|--------------------------------|

 |       |       |       |        |       |       |       |        
|0-------------------------------|----------------------------2---|
|0-------0-----------0---3-------|1---------------0---------------|
|0-----------------------4-------|2---0---2-----------------------|
|2-------------------------------|--------4---2---4---2---1-------|
|2-------------------------------|0-------3-------2---------------|
|0-----------0---3-----------3---|--------------------------------|

 |       |       |       |        |       |       |       |        
|3-----------3---2---------------|0-----------0---------------3---|
|0-------0-------3-------4-------|--0-------0-----4-------0-------|
|----2---------------------------|----2-0-2-----2-4-------0-------|
|2-----------2---0-------4-------|----------------4---------------|
|------------------------2-------|3---------------2---------------|
|0-------------------------------|------------------------3-------|

 |       |       |       |        |       |       |       |        
|2---0---0---------0-------0-----|0---------------0---------------|
|--------------------4-2-4-----4-|0-----3-0-------0---------------|
|2---0-----------------------2---|1---------2-0---1---------------|
|------------2---4---------------|2-------------4-----2-----------|
|0-------3-------2---------------|2-------------------------------|
|--------------------------------|0---------------0-------0-------|

 |       |       |       |        |       |       |       |        
|0-----------1-----------3-------|--2-0---0-2-2-0-----------------|
|0---------3---3-0-------0-------|------3---------4---------------|
|0---------------0---2-----------|0-----------2---4---------------|
|--------2-----------------------|----------------4---------------|
|--------------------------------|3---------------2---------------|
|0---------------0---------------|--------------------------------|

 |       |       |       |        |       |       |       |        
|--0-----------------------------|------------------------------2-|
|----0-1-0---0-1-0---0---0-1-3-0-|1-----------------0-------------|
|0---------0-------0---0---------|2---0---2-----------------------|
|----------------------------2---|--------4---2-----4-1-----2---1-|
|--------------------------------|0-------3-------2-7---4-6-------|
|0-----------0---3-----------3---|--------------------------------|

 |       |       |       |        |       |       |       |        
|3-----------3---2---------------|--2-3---5-3-2---------------3---|
|0-----------0-2-3---0---4-------|5-----5-------5-4---------5---5-|
|--------0-2---------------------|------------2---4-------4-------|
|2-1-2-4-----2---0-------4-------|----------------4-------5-------|
|------------------------2-------|3---------------2---------------|
|0-------------------------------|------------------------3-------|

 |       |       |       |        |       |       |       |        
|2---0---0-------------2-2---0-0-|0---------------0-------0-------|
|----------------4-0-4-----4-----|0-----3-0-3-0---0-------0-------|
|2---0---------------------------|1-------------0-0-----2-0-------|
|--------4---2---4---------------|----------------------2-2-------|
|0-------3-------2---------------|------------------------2-------|
|--------------------------------|0-------------------0---0-------|

 |       |       |       |        |       |       |       |        
|3-----------2---0-------3-------|--3-2-0-2-3---2-3---------------|
|0---------------0---3---3-------|1-----------1---0-------3-------|
|0---------------0---------------|2---------------0---------------|
|--------0-----------------------|--------------------------------|
|------------------------2-------|0---------------------------2---|
|3---------------3---------------|----------------3---------------|

 |       |       |       |        |       |       |       |        
|----0---0-------0---------------|------------------------0-------|
|----0-------4---0---1---0-------|--------1-----------1-----------|
|----0-----------1---------------|----2-------------------0-------|
|--------4-------------------2---|--------------------2-----------|
|--------2-----------0-----0-----|0-----------0---3-----------3---|
|3---0-----------0-----------4---|--------------------------------|

 |       |       |       |        |       |       |       |        
|----0---3---------------2-----3-|5-------------------------------|
|--------0-----------3-----------|----------------------3-5-------|
|----0-----------0---------------|------------2---5---------------|
|2-----------2---------------0---|--------------------------------|
|--------------------------------|------------------------3-----5-|
|--------------------------------|2-----3-5-----------5-----------|

 |       |       |       |        |       |       |       |        
|----3-------2---3-----2-0-3-2-0-|----0---------------------------|
|0---------------0---------------|--------4---2---4---------------|
|0-------------------------------|--------------------------------|
|2-----------1---2---------------|----4-----------4---------------|
|------------------------3-------|2---------------2---------------|
|--------------------------------|--------------------------------|

 |       |       |       |        |       |       |       |        
|3-----------2---0-------3-------|--3-2-0-3-3-3-0-3---------------|
|0---------------0---3-----------|----------------0-------3-------|
|0---------------0---------------|2---------------0---------------|
|--------0-----------------------|--------------------------------|
|------------------------2-------|0---------------------------2-0-|
|3---------------3---------------|----------------3---------------|

 |       |       |       |        |       |       |       |        
|----0-----0-----0---------------|------------------------0-------|
|----0-------4---0---1---0-------|------0-1-----------1-3---------|
|----0-----------1---------------|----2---------------------------|
|--------4---------------------2-|------------------------------0-|
|--------2-----------0-----0-----|0-----------0-2-3-----------3---|
|3-2-0-----------0-----------4---|--------------------------------|

 |       |       |       |        |       |       |       |        
|----0-2-3-------------0-2-0-2-3-|5-------------------------------|
|--------0-----------3---3-------|----------------------3-5-------|
|----0-----------0---------------|------------2-4-5-4-5-----------|
|2-----------2-4-------------0---|--------------------------------|
|--------------------------------|------------------------3-2-3-5-|
|--------------------------------|2-0-2-3-5-------2-----3---------|

 |       |       |       |        |       |       |       |        
|----3-------2---3-----2-0-2-2-0-|--------2-5-2-------------------|
|--------0---0---0---------------|4---4-4-------4-4-----5-4-------|
|------2---------------------2---|--4-------------4-------4-------|
|2-----------1---2---------------|----------------------4-4-------|
|------------------------3-------|2-------------------2---2-------|
|--------------------------------|--------------------------------|

 |       |       |       |        |       |       |       |        
|------------0---2-------3-------|2---0---0---------0-------0-----|
|4---------------0---------------|0-------------------4-2-4-----4-|
|--------------------------------|--------0---------------------2-|
|4---------------1-----------2---|4---------------4---------------|
|2---------------2---------------|2---------------2---------------|
|--------------------------------|--------------------------------|

 |       |       |       |        |       |       |       |        
|0-----------3---2---3---0-----0-|--------------------------------|
|0-----------0---0---3-----------|4-------------------------------|
|1-----------------------0---2---|----------------0---------------|
|------------2---0---------4-----|4-----------4-----------4-------|
|--------------------2---3-------|2---------------2---------------|
|0-------------------------------|----------------------------2---|

 |       |       |       |        |       |       |       |        
|--------7---------------5-------|--------3-------2---------------|
|--------------------7-----------|----5-------------------5-------|
|--------------------------------|--------------------------------|
|--------------------------------|--------------------------------|
|----7-----------------------6---|7-----------2---5---------------|
|3---------------2---------------|0-------------------------------|

 |       |       |       |        |       |       |       |        
|------------3---2---0---0-------|----------0-----0---------------|
|4-------------------------------|0---4-2-4-----4-0-----3-0-------|
|--------0-------2---0-----------|------------2---1---------2-0---|
|4-----------------------4---2---|4---------------2-------------4-|
|----------------0-------3-------|2---------------2---------------|
|--------3-----------------------|----------------0---------------|

 |       |        |       |       |       |        
|0---------------|------------0---2-0-3-3-3-0-3---|
|0---------------|4---------------0---------------|
|1---------------|--------------------------------|
|----2-----------|4---------------1-------------2-|
|----------------|2---------------2---------------|
|0-------0-------|--------------------------------|

 |       |       |       |        |       |       |       |        
|2---0---0---------0-----0-0-0---|0-----------3---2-0-3---0-----0-|
|0-------------------4-2-------2-|0-----------0-------------------|
|--------0-----------------------|1-------------------------2-2---|
|4---------------4---------------|------------2---0-------4-------|
|----------------2---------------|--------------------2-----------|
|--------------------------------|0-------------------------------|

 |       |       |       |        |       |       |       |        
|--------------------------------|--------7---------5-----5-------|
|4-------------------------------|--------------------7-7---------|
|4---------------0---2-----------|--------------------------------|
|4-----------4-----4---4-4-------|--------------------------------|
|2---------------2---------------|----7-----------------------6---|
|----------------------------2---|3---------------2---------------|

 |       |       |       |        |       |       |       |        
|--3-----3-------2---3-----2-5-2-|------------7---5-7-8-7-5-------|
|----5-5-----------5---5-5-------|--------------------------8-7-5-|
|4-------------------------------|8-------4-----------------------|
|5-------------------------------|9-------------------------------|
|7-----------2---5-------3-------|9-------5-----------------------|
|0-------------------------------|7-------3-------5-------8-------|

 |       |       |       |        |       |        |       |        
|------2-2---0-0-0---------------|0-------0-------|--------------||
|4-0-4-----4-----0-----3-0-3-0---|0-------0-------|--------------||
|4---------------1-------------0-|1-----2-1-------|--------------||
|----------------2---------------|--2-----2-------|--------------||
|2---------------2---------------|--------2-------|--------------||
|----------------0---------------|--------0-------|--------------||


Created with TablEdit http://www.tabledit.com/
comments
We did not receive enough feedback on this tab! Please rate:
print report bad tab
1 2 3 4 5
1 comment total.
0 reply
Rensa wrote on February 23 2013, 12:07 pm

This tab is perfect!!! 5 stars all the way..

I want to post or [tab]
guest
You may want to rate the tab now too:
select rating
Please do not post tabs as comments. Select "correction" instead!