Oops, an error
Loading. Please wait.

Falling Tab

ver3
ver3

Whole song

More versions @911Tabs.com
1,221 views 9 this week
no commentswrite comment
1 2 3 4 5
excellent!
x 2
Autoscroll
+/-
esc
set tempo
stop
Contributor
Hey! There's an official Ultimate Guitar app which is ideal
for learning songs when you're away from computer. Get the app
WARNING: You are trying to view
                                    content from Ultimate-Guitar.com
                                    in an unauthorized application,
                                    which is prohibited.

                                    Please use an official Ultimate
                                    Guitar Tabs application for iPhone,
                                    iPad or Android to access legitimate
                                    chords, guitar, bass, and drum tabs
                                    from Ultimate-Guitar.com database.

                                    Type "ultimate guitar tabs" in Apple
                                    App Store's or Android Market's
                                    search to find the application.
Falling – John Frusciante

Part 1

e|---------------------------------------------|
B|---------------------------------------------|
G|-----6-8-----6-8--------6-8-----6-8---6-8----|
D|---------------------------------------------|
A|-6-6-----6-6-----6-6--6-----6-6-----6--------|
E|---------------------------------------------|


Part 2

e|--------------------------------|
B|------------11-------------7----|
G|-----8------------10-----8--8---|
D|---------11------------8--------|
A|---9---9--------11--------------|
E|-7-------------9----------------| 


Solo at 2:52


e|-12b14---11--9-11-----9--------------------|
B|-----------------11----11-9\7--7-7--6h7-7--|
G|-------------------------------------------|
D|-------------------------------------------|
A|-------------------------------------------|
E|-------------------------------------------|


e|-4h6p4---4---------------------------------|
B|-------7---7-6--6h7p6--4-2-2/4-------------|
G|--------------------------------6\3--------|
D|-------------------------------------------|
A|-------------------------------------------|
E|-------------------------------------------|


e|-----------6-------------------------------|
B|-----6-7-9---9-7-6--9-7-6--7p6-7p6-7p6-----|
G|-6-8-----------------------------------8---|
D|-------------------------------------------|
A|-------------------------------------------|
E|-------------------------------------------|


e|-------------------------------------------|
B|------------------------------8/11---------|
G|-8p6---6---6---6--8/10-8-6-8---------------|
D|-----8---8---8-----------------------------|
A|-------------------------------------------|
E|-------------------------------------------|



e|-------------------------------------------|
B|-------6-7-6-------6-7-6--------6-7-6------|
G|-8-6-8-------8-6-8--------8-6-8------------|
D|-------------------------------------------|
A|-------------------------------------------|
E|-------------------------------------------|

 Then this comes in:

e|---------9-11-9---------9-11-9-------------|
B|-11-9-11--------11-9-11---------11-9-11----|
G|-------------------------------------------|
D|-------------------------------------------|
A|-------------------------------------------|
E|-------------------------------------------|

The solos that sound weird are actually played backwards, 
I searched the tab with a reversed version of the song. 
Then I turn around the tabs. 
It’s pretty accurate but the sound is different, 
this just shows which notes you can 
play to get the same feeling. 


Guitar 1

0:23
e |----------------------------------------------------------------|
B |-----------------------------------------------14-16b18r-14-----|
G |-15-19-15---------------------15-15-13---15-15---------------15-|
D |-----------16~--16-15---16-16-----------------------------------|
A |----------------------------------------------------------------|
E |----------------------------------------------------------------|

e |-----------14-14-13-14-17b19r17---------------------------------|
B |----------------------------------16-19-16----------------------|
G |-15-13-15----------------------------------15-18-15-------------|
D |----------------------------------------------------13-15-------|
A |----------------------------------------------------------------|
E |----------------------------------------------------------------|

e |------------------------------|
B |--14--14---14---14------------|
G |-------------------15---------|
D |----16---16-b16r--------------|
A |------------------------------|
E |------------------------------|

1:13

e |-------------------------------13-14-13-------------------------|
B |----------------------16-14-16-------------14-------------------|
G |-11-13\--18\-15-13-15-------------------15-------12-11s13-15----|
D |----------------------------------------------13----------------|
A |----------------------------------------------------------------|
E |----------------------------------------------------------------|

e |-----------------------13-14-13----13-14-13-16-13----------|
B |-------------------14-----------14----------------14-------|
G |----------15-13-15-----------------------------------15----|
D |-13-11-13--------------------------------------------------|
A |-----------------------------------------------------------|
E |-----------------------------------------------------------|

e |----13-14-16-14-13-14-13---14-16-14-16-14-16-18-----------------|
B |-14----------------------------------------------14-16b-18r16-14|
G |----------------------------------------------------------------|
D |----------------------------------------------------------------|
A |----------------------------------------------------------------|
E |----------------------------------------------------------------|

e |----------------------------------------------------------------|
B |-15\-------------------------------------------7-6-7------------|
G |------15-15------------------------------8-6-8-------6-8-8------|
D |-------------16\--16\-9-8-9-8-9-8---8-8/------------------------|
A |----------------------------------------------------------------|
E |----------------------------------------------------------------|

e |--------------------9----------9----------------9-9-------------|
B |-6-7---7-------9-11---11----11---11----------11-----11----------|
G |-----8---8-8-8-----------10------------10-11-----------11-------|
D |----------------------------------------------------------------|
A |----------------------------------------------------------------|
E |----------------------------------------------------------------|

e |----------------------------------------------------------------|
B |----------------------------------------------------------------|
G |--11-10-11---13-11-10-------------------------------------------|
D |----------------------13----13-13-11----11-13-13-13-11--13------|
A |-------------------------------------13-------------------------|
E |----------------------------------------------------------------|

e |----------------------------------------------------------------|
B |-------11b12r11---11-12---14p12p11-----------------11h12p11-----|
G |-11-11-----------------------------11--------11-11--------------|
D |--------------------------------------13--13--------------------|
A |----------------------------------------------------------------|
E |----------------------------------------------------------------|

e |--------------13h14h16-13h14h16-13h14h16---b18r17-b13r11-9------|
B |-14p12h14--14----------------------------------------------11---|
G |----------------------------------------------------------------|
D |----------------------------------------------------------------|
A |----------------------------------------------------------------|
E |----------------------------------------------------------------|

e |----------------------------------------------------------------|
B |-b11r9b11-------------------6-7-6-----9\--------6-6h7p6-7-------|
G |---------------8s11s8----6---------8------8-8-8-----------------|
D |-----------8s6---------8----------------------------------------|
A |----------------------------------------------------------------|
E |----------------------------------------------------------------|

e |----------------11-11s9----9------------------------------------|
B |--6h7p6-7-b9r7----------11----11------b13r11--------------------|
G |----------------------------------11----------------------------|
D |----------------------------------------------------------------|
A |----------------------------------------------------------------|
E |----------------------------------------------------------------|

2:55 (play this quietly) 
e |------------------20-18-18-18-\---------------------------------|
B |------16-18s19--------------------------------------------------|
G |----------------------------------------------------------------|
D |----------------------------------------------------------------|
A |----------------------------------------------------------------|
E |----------------------------------------------------------------|

3:55
e |----9----9-11-13-11-9-6-6---------6-9-6-6-----------4-6---------|
B |-11---11------------------7-6-7-9-----------4-7-6-7-------------|
G |----------------------------------------------------------------|
D |----------------------------------------------------------------|
A |----------------------------------------------------------------|
E |----------------------------------------------------------------|

e |----------1-2---------------------------------------------------|
B |----4-2-4------4-2-4-4-2----------------------------------------|
G |--------------------------3-------------------------------------|
D |-------------------------------4-4-6s8-8------------------------|
A |----------------------------------------------------------------|
E |----------------------------------------------------------------|

Guitar 2
0:23
e |---------------------------------9----------9/12\9-6h9-6h9------|
B |---------------b7r6---6h7p6-b11r---b11r10-7---------------------|
G |-6-8-8---6h8-8------8-------------------------------------------|
D |-------8--------------------------------------------------------|
A |----------------------------------------------------------------|
E |----------------------------------------------------------------|

e |----11-9--------------------------------------------------------|
B |-11------11s9-9-------------------------------------------------|
G |----------------8~10b11r10-11b13r-8-8---------------------------|
D |----------------------------------------------------------------|
A |----------------------------------------------------------------|
E |----------------------------------------------------------------|
1:15
e |-----------------------------------9-11-13-11\9/11-9------------|
B |--------------------------------11-------------------11-11------|
G |-----------11p10-8-b11r10b11-11---------------------------------|
D |-8p6-8p6-8------------------------------------------------------|
A |----------------------------------------------------------------|
E |----------------------------------------------------------------|


e |---------------------------------6-7-9-7-6----------------9-----|
B |-7-6-7-7/9-11----11------------7-----------7-------9----9---11--|
G |--------------11----11\--8-8-8---------------8/-10---10---------|
D |----------------------------------------------------------------|
A |----------------------------------------------------------------|
E |----------------------------------------------------------------|

e |-------------9----------------11-12br-11-13-14-14-13-14-16------|
B |-10-10-11-11---11-------11-11-----------------------------------|
G |------------------11-11-----------------------------------------|
D |----------------------------------------------------------------|
A |----------------------------------------------------------------|
E |----------------------------------------------------------------|

e |-18-20b22r20-18-18----14------11----9---------------9-----------|
B |-------------------16----16------11---11-11-7-6-7-9---9---------|
G |--------------------------------------------------------10------|
D |----------------------------------------------------------------|
A |----------------------------------------------------------------|
E |----------------------------------------------------------------|

e |-------------------|
B |-------------------|
G |-10\---------------|
D |-----11\--8\-------|
A |--------------9/---|
E |-------------------|


e |----------------------------------------------------------------|
B |-8-6--6----6-8b10r8-11-10-11-10-8------11~-8--------------------|
G |---------8------------------------11-8-------11-8---10-13s8-----|
D |------------------------------------------------------------11-8|
A |----------------------------------------------------------------|
E |----------------------------------------------------------------|
                        3:55
e |--------------------||------------------------------------------|
B |--------------------||-----------------------9s11-11s16-16------|
G |-11-8---------------||8----8-10-10b11-11r10---------------------|
D |------11-8-888-8h11-||--11--------------------------------------|
A |--------------------||------------------------------------------|
E |--------------------||------------------------------------------|

e |----------------------------------------------------------------|
B |-14-16-16-16-15s13----------------------------------------------|
G |-------------------16-16s20-20s18-18s13-13-15-15-15-16-16-16\---|
D |----------------------------------------------------------------|
A |----------------------------------------------------------------|
E |----------------------------------------------------------------|

e |----------------------------------------------------------------|
B |----------------------------11h12p11-14-------------------------|
G |------------8------------11-------------b15r13b15---------------|
D |-9898989898---11-8-11-13----------------------------------------|
A |----------------------------------------------------------------|
E |----------------------------------------------------------------|

That's about it, enjoy
comments
We did not receive enough feedback on this tab! Please rate:
print report bad tab
1 2 3 4 5
I want to post or [tab]
guest
You may want to rate the tab now too:
select rating
Please do not post tabs as comments. Select "correction" instead!