Oops, an error
Loading. Please wait.

Song To Sing When Im Lonely Tab

ver4
ver4

Whole song

Interactive

More versions @911Tabs.com
3,254 views 3 this week
no commentswrite comment
1 2 3 4 5
excellent!
x 2
Autoscroll
+/-
esc
set tempo
stop
Contributor
Hey! There's an official Ultimate Guitar app which is ideal
for learning songs when you're away from computer. Get the app
WARNING: You are trying to view
                                    content from Ultimate-Guitar.com
                                    in an unauthorized application,
                                    which is prohibited.

                                    Please use an official Ultimate
                                    Guitar Tabs application for iPhone,
                                    iPad or Android to access legitimate
                                    chords, guitar, bass, and drum tabs
                                    from Ultimate-Guitar.com database.

                                    Type "ultimate guitar tabs" in Apple
                                    App Store's or Android Market's
                                    search to find the application.
Hi guys
I thought the other two tabs were a little weird so i decided to make my own.

Tabbed by: Jed Kim

Tuning:EADGBe (Standard)

e|----------------------6------------4-------------4-----|
B|--------7-----------7---7--------6---6-------4-----4---|
G|------8---8-------8------8-----6-------6-------4-----4-|  x2
D|----9-------9------------------------------------------|
A|----------------6------------4-------------------------|
E|-7----------------------------------------4------------|

Now on the second time, you play the ending like this:

e|-------4-----4-----4-----|
B|---4-----4-----4-----4---|
G|-----4-----4-----4-----4-|
D|-------------------------|
A|-------------------------|
E|-4-----------------------|

The ending goes like this.

e|-2-----2-----2----9-----9-----9----4-----4-----4---| and after each one of
B|---2-----2-----2----6-----6-----6----4-----4-----4-| these, John plays 
G|-----3-----3----------6-----6----------4-----4-----| something, and i know
D|---------------------------------------------------| the notes, but i think
A|---------------------------------------------------| you guys should 
E|---------------------------------------------------| improvise them.

Play this 3x *points upward* ^|^|^

Then play this.

e|-2-----2-----2-----9-----9-----9----4-|
B|---2-----2-----2-----6-----6-----6--4-|
G|-----3-----3-----------6-----6------6-|
D|------------------------------------6-|
A|------------------------------------4-|
E|------------------------------------4-|

This is somewhere in the middle of the first chorus.

e|-2-----2-----2----9-----9-----9----4-----4-----4----| 
B|---2-----2-----2----6-----6-----6----4-----4-----4--|  
G|-----3-----3----------6-----6----------4-----4------| then play G#M 
D|----------------------------------------------------| a few times
A|----------------------------------------------------|  
E|----------------------------------------------------| 

   B                Ebm
A song to play when I'm lonely
   C#                G#m
win and never play a game again
   B                Ebm
no one to face when I'm falling
   C#                G#m
holding tight to dreams that never end

   F#         C#        G#m
I'll be you, I do, I'll be you
                      F#     C#     G#m
no one's afraid to be called by another name
                      Riff 1                      Cover all strings and strum
no one dares to be put down where we donĀ“t belong
G#m              F# C#
nowhere's anyone reason
G#m                  F# C#
everything dying and leaving
B(soft to loud)                              F# G#m
out with these faults and you make me a baby
B(soft to loud)                          F# G#m
faking a movement but no one's seeing it
F#     G#m          F#        G#m
no one always finds peace to flung
F#     G#m          F#        G#m
no one chooses to beat my pride down

   B                  Ebm
Symbols pierce right through me
   C#              G#m
People fail to be drawn up
   B               Ebm
Sunlight to fate accumulates
   C#             G#m
Loving pain to be clung to

F# C#     G#m
Luminous bodies
                 F#   C#          G#m
Only waiting for long signs to be wrong
              Cover all strings and strum 
And true to us
G#m                F#  C#
Out of place in my own time
G#m                    F#  C#
Drowning thinking that I'm dry
B(start soft then go loud)                F# G#m
Holding onto facts that'll never be proven
B(start soft then go loud)            F# G#m
Faking an action cause no one's looking
F#   G#m       F#  G#m
Hello when I'm crashing
F#           G#m            F#       G#m            
Feel nothing when my life's flashing before my eyes

 *start playing the ending part here

You should've threw me down

Is the content so much

You should've threw me down

Is the content so much

You should've threw me down

Is the content so much

You should've threw me down

Is the content so much
comments
We did not receive enough feedback on this tab! Please rate:
print report bad tab
1 2 3 4 5
I want to post or [tab]
guest
You may want to rate the tab now too:
select rating
Please do not post tabs as comments. Select "correction" instead!