Oops, an error
Loading. Please wait.

Time Is Nothing Tab

4,240 views 15 this week
1 commentread comment
1 2 3 4 5
accurate
x 8
add to favorites launch autoscroll
font size
0
reset
Autoscroll
+/-
esc
set tempo
stop
Contributor
WARNING: You are trying to view
                                    content from Ultimate-Guitar.com
                                    in an unauthorized application,
                                    which is prohibited.

                                    Please use an official Ultimate
                                    Guitar Tabs application for iPhone,
                                    iPad or Android to access legitimate
                                    chords, guitar, bass, and drum tabs
                                    from Ultimate-Guitar.com database.

                                    Type "ultimate guitar tabs" in Apple
                                    App Store's or Android Market's
                                    search to find the application.
TIME IS NOTHING
JOHN FRUSCIANTE


                                                                   
E||----------------------------|----------------------------------|
B||---------5---------5--------|------------8-----------8---------|
G||-----5---------5---------5--|-------9-----------9-----------9--|
D||--7----7----7----7----7-----|--7/10---10----10----10----10-----|
A||----------------------------|----------------------------------|
E||----------------------------|----------------------------------|


                                                                         
--------------------------------------|---------------------------------|
------------10------------10----------|-----------8-----------8---------|
------11------------11------------11--|------9-----------9-----------9--|
--12-----12-----12-----12-----12------|--10----10----10----10----10-----|
--------------------------------------|---------------------------------|
--------------------------------------|---------------------------------|


                                                                
----------------------------|----------------------------------|
---------5---------5--------|------------8-----------8---------|
-----5---------5---------5--|-------9-----------9-----------9--|
--7----7----7----7----7-----|--7/10---10----10----10----10-----|
----------------------------|----------------------------------|
----------------------------|----------------------------------|


                                                                         
--------------------------------------|---------------------------------|
------------10------------10----------|-----------8-----------8---------|
------11------------11------------11--|------9-----------9-----------9--|
--12-----12-----12-----12-----12------|--10----10----10----10----10-----|
--------------------------------------|---------------------------------|
--------------------------------------|---------------------------------|


                                                                
---------5---------5--------|------------8-----------8---------|
---------5---------5--------|------------8-----------8---------|
-----5---------5---------5--|-------9-----------9-----------9--|
--7----7----7----7----7-----|--7/10---10----10----10----10-----|
----------------------------|----------------------------------|
----------------------------|----------------------------------|


                                       
------------10------------10----------|
------------10------------10----------|
------11------------11------------11--|
--12-----12-----12-----12-----12------|
--------------------------------------|
--------------------------------------|


                                                                       
----------8---------8---------8----------|---------5---------5--------|
----------8---------8---------8----------|---------5---------5--------|
-----9---------9---------9---------9-----|-----5---------5---------5--|
--10---10---10---10---10---10---10---10--|--7----7----7----7----7-----|
-----------------------------------------|----------------------------|
-----------------------------------------|----------------------------|


                                                                          
------------8-----------8---------|------------10------------10----------|
------------8-----------8---------|------------10------------10----------|
-------9-----------9-----------9--|------11------------11------------11--|
--7/10---10----10----10----10-----|--12-----12-----12-----12-----12------|
----------------------------------|--------------------------------------|
----------------------------------|--------------------------------------|


                                          
----------8---------8---------8----------|
----------8---------8---------8----------|
-----9---------9---------9---------9-----|
--10---10---10---10---10---10---10---10--|
-----------------------------------------|
-----------------------------------------|


                                                                         
------------10------------10----------|-----------8-----------8---------|
------------10------------10----------|-----------8-----------8---------|
------10------------10------------10--|------9-----------9-----------9--|
--12-----12-----12-----12-----12------|--10----10----10----10----10-----|
--------------------------------------|---------------------------------|
--------------------------------------|---------------------------------|


                                                                          
------------10------------10----------|-----------8-----------8--8h10h8--|
------------10------------10----------|-----------8-----------8--8-------|
------10------------10------------10--|------9-----------9---------------|
--12-----12-----12-----12-----12------|--10----10----10----10------------|
--------------------------------------|----------------------------------|
--------------------------------------|----------------------------------|


                                                                
---------5---------5--------|------------8-----------8---------|
---------5---------5--------|------------8-----------8---------|
-----5---------5---------5--|-------9-----------9-----------9--|
--7----7----7----7----7-----|--7/10---10----10----10----10-----|
----------------------------|----------------------------------|
----------------------------|----------------------------------|


                                                                         
------------10------------10----------|-----------8-----------8---------|
------------10------------10----------|-----------8-----------8---------|
------11------------11------------11--|------9-----------9-----------9--|
--12-----12-----12-----12-----12------|--10----10----10----10----10-----|
--------------------------------------|---------------------------------|
--------------------------------------|---------------------------------|


                                                                
---------5---------5--------|------------8-----------8---------|
---------5---------5--------|------------8-----------8---------|
-----5---------5---------5--|-------9-----------9-----------9--|
--7----7----7----7----7-----|--7/10---10----10----10----10-----|
----------------------------|----------------------------------|
----------------------------|----------------------------------|


                                       
------------10------------10----------|
------------10------------10----------|
------11------------11------------11--|
--12-----12-----12-----12-----12------|
--------------------------------------|
--------------------------------------|


                                          
----------8---------8---------8----------|
----------8---------8---------8----------|
-----9---------9---------9---------9-----|
--10---10---10---10---10---10---10---10--|
-----------------------------------------|
-----------------------------------------|


                                                                         
------------10------------10----------|-----------8-----------8---------|
------------10------------10----------|-----------8-----------8---------|
------10------------10------------10--|------9-----------9-----------9--|
--12-----12-----12-----12-----12------|--10----10----10----10----10-----|
--------------------------------------|---------------------------------|
--------------------------------------|---------------------------------|


                                       
------------10------------10----------|
------------10------------10----------|
------10------------10------------10--|
--12-----12-----12-----12-----12------|
--------------------------------------|
--------------------------------------|


                                          
----------8---------8---------8----------|
----------8---------8---------8----------|
-----9---------9---------9---------9-----|
--10---10---10---10---10---10---10---10--|
-----------------------------------------|
-----------------------------------------|


                                                                         
------------10------------10----------|-----------8-----------8---------|
------------10------------10----------|-----------8-----------8---------|
------10------------10------------10--|------9-----------9-----------9--|
--12-----12-----12-----12-----12------|--10----10----10----10----10-----|
--------------------------------------|---------------------------------|
--------------------------------------|---------------------------------|


                                                                
------------10------------10----------|------------------------|
------------10------------10----------|------------------------|
------10------------10------------10--|--2--2--2----4--4--4----|
--12-----12-----12-----12-----12------|--3--3--3----5--5--5----|
--------------------------------------|--3--3--3----5--5--5----|
--------------------------------------|--1--1--1----3--3--3----|


                                                                
---------5---------5--------|------------8-----------8---------|
---------5---------5--------|------------8-----------8---------|
-----5---------5---------5--|-------9-----------9-----------9--|
--7----7----7----7----7-----|--7/10---10----10----10----10-----|
----------------------------|----------------------------------|
----------------------------|----------------------------------|


                                                                          
------------10------------10----------|-----------8-----------8--8h10h8--|
------------10------------10----------|-----------8-----------8--8-------|
------11------------11------------11--|------9-----------9---------------|
--12-----12-----12-----12-----12------|--10----10----10----10------------|
--------------------------------------|----------------------------------|
--------------------------------------|----------------------------------|


                                                                
---------5---------5--------|------------8-----------8---------|
---------5---------5--------|------------8-----------8---------|
-----5---------5---------5--|-------9-----------9-----------9--|
--7----7----7----7----7-----|--7/10---10----10----10----10-----|
----------------------------|----------------------------------|
----------------------------|----------------------------------|


                                       
------------10------------10----------|
------------10------------10----------|
------11------------11------------11--|
--12-----12-----12-----12-----12------|
--------------------------------------|
--------------------------------------|


                                          
----------8---------8---------8----------|
----------8---------8---------8----------|
-----9---------9---------9---------9-----|
--10---10---10---10---10---10---10---10--|
-----------------------------------------|
-----------------------------------------|


                                                                         
------------10------------10----------|-----------8-----------8---------|
------------10------------10----------|-----------8-----------8---------|
------10------------10------------10--|------9-----------9-----------9--|
--12-----12-----12-----12-----12------|--10----10----10----10----10-----|
--------------------------------------|---------------------------------|
--------------------------------------|---------------------------------|


                                       
------------10------------10----------|
------------10------------10----------|
------10------------10------------10--|
--12-----12-----12-----12-----12------|
--------------------------------------|
--------------------------------------|


                                          
----------8---------8---------8----------|
----------8---------8---------8----------|
-----9---------9---------9---------9-----|
--10---10---10---10---10---10---10---10--|
-----------------------------------------|
-----------------------------------------|


                                                                         
------------10------------10----------|-----------8-----------8---------|
------------10------------10----------|-----------8-----------8---------|
------10------------10------------10--|------9-----------9-----------9--|
--12-----12-----12-----12-----12------|--10----10----10----10----10-----|
--------------------------------------|---------------------------------|
--------------------------------------|---------------------------------|


                                                                  
------------10------------10----------|--------------------------|
------------10------------10----------|--10----10----------12----|
------10------------10------------10--|--10----10----12----12----|
--12-----12-----12-----12-----12------|--10----10----12----12----|
--------------------------------------|--8-----8-----10----10----|
--------------------------------------|--------------------------|


                     
--5----------------||
--5----------------||
--5----------------||
--7----------------||
--7----------------||
--5----------------||

solo part :



                                                                   
----------------------|----------------------|--------------------|
----------------------|----------------------|--------------------|
----------------------|----------------12----|--------------------|
----------------14----|--12------------------|--14----------------|
--12------------------|----------------------|--------------------|
----------------------|----------------------|--------------------|


                                                                 
------------------|----------------------|----------------------|
------------------|----------------------|----------------------|
------------------|----------------------|----------------------|
------------------|----------------------|----------------------|
------------------|--12------------13b---|--10------------12b---|
------------------|----------------------|----------------------|


                                                                     
--------------------|--------------------|--------------------------|
--------------------|--------------------|--------------------------|
--------------------|--------------------|--------------------------|
--------------------|--------------14----|--12------------12-14-12--|
--7h-5--------------|--------------------|--------------------------|
--------------------|--------------------|--------------------------|


                                                                             
------------------------|--------------------------|------------------------|
------------------------|--------------------------|------------------------|
------------------------|--------------------------|------------------------|
------------------------|--12------------12-14-12--|------------------------|
--15------------12--15--|--------------------------|--15------------12--15--|
------------------------|--------------------------|------------------------|


                                                                     
--------------------------|--------------------|--------------------|
--------------------------|--------------------|--------------------|
--------------------------|--------------------|--14----------------|
--12------------12-14-12--|--------------------|--------------------|
--------------------------|--15----------------|--------------------|
--------------------------|--------------------|--------------------|


                                                               
----------------------|--------------------|------------------|
----------------------|--------------------|------------------|
--14--------12--------|--------------------|------------------|
----------------------|--14----------------|------------------|
----------------------|--------------------|------------------|
----------------------|--------------------|------------------|




THANK U
IF IN DOUBT MAIL: linden_004@yahoo.com
comments
print report bad tab
1 comment total.
0 reply
beatles-fan wrote on May 26 2008, 01:49 pm

main riff sounds great

I want to post or [tab]
guest
You may want to rate the tab now too:
select rating
Please do not post tabs as comments. Select "correction" instead!