Oops, an error
Loading. Please wait.

To Record Only Water For Ten Days Tab

10,881 views 18 this week
2 commentsread comments
1 2 3 4 5
worth learning
x 5
add to favorites launch autoscroll
font size
0
reset
Autoscroll
+/-
esc
set tempo
stop
Contributor
WARNING: You are trying to view
                                    content from Ultimate-Guitar.com
                                    in an unauthorized application,
                                    which is prohibited.

                                    Please use an official Ultimate
                                    Guitar Tabs application for iPhone,
                                    iPad or Android to access legitimate
                                    chords, guitar, bass, and drum tabs
                                    from Ultimate-Guitar.com database.

                                    Type "ultimate guitar tabs" in Apple
                                    App Store's or Android Market's
                                    search to find the application.
===================
| JOHN FRUSCIANTE |
===================

                          ***Going Inside***

=====
Intro
=====

Rhythm Guitar (Clean)
E||--3--------3--------|--3--------3--------|--------1-----------------|
B||--3--------3--------|--5--------5--------|-----------1--------3-----|
G||--3--------3--------|--5--------5--------|-----3-----------0-----0--|
D||--5--------5--------|--5--------5--------|--1-----------------------|
A||--5--------5--------|--3--------3--------|--------------3-----------|
E||--3--------3--------|--------------------|--------------------------|

E||--------1-----------------|--3--------3--------|
B||-----------1--------3-----|--3--------3--------|
G||-----3-----------0-----0--|--3--------3--------|
D||--1-----------------------|--5--------5--------|
A||--------------3-----------|--5--------5--------|
E||--------------------------|--3--------3--------|
\\
Lead Guitar (Distorted)
E||--------------------|--------------------|--------------------------|
B||--------------------|--------------------|--------------------------|
G||--------------------|--------------------|--------------------------|
D||--------------------|--------------------|--------------------------|
A||--------------------|--------------------|--------------------------|
E||--------------------|--------------------|--------------------------|

E||--------------------------|--10----------10-13-|
B||--------------------------|--------------------|
G||--------------------------|--------------------|
D||--------------------------|--------------------|
A||--------------------------|--------------------|
E||--------------------------|--------------------|
                                                   

--3-------3-----------|--------1-----------------|--------1-----------------|
--5-------5-----------|-----------1--------3-----|-----------1--------3-----|
--5-------5-----------|-----3-----------0-----0--|-----3-----------0-----0--|
--5-------5-----------|--1-----------------------|--1-----------------------|
--3-------3-----------|--------------3-----------|--------------3-----------|
----------------------|--------------------------|--------------------------|

--3--------3--------|--3--------3------|
--3--------3--------|--5--------5------|
--3--------3--------|--5--------5------|
--5--------5--------|--5--------5------|
--5--------5--------|--3--------3------|
--3--------3--------|------------------|
\\
----------------------|--------------------------|--------------------------|
----------------------|--------------------------|--------------------------|
-12----------14-15-14-|--12----------------------|--12----------------10-9--|
----------------------|--------------------------|--------------------------|
----------------------|--------------------------|--------------------------|
----------------------|--------------------------|--------------------------|

--------------------|------------------|
--------------------|------------------|
--7-------------5-4-|--0--------19b----|
--------------------|------------------|
--------------------|------------------|
--------------------|------------------|
                                                                                               
--------1-----------------|--------1-----------------|
-----------1--------3-----|-----------1--------3-----|
-----3-----------0-----0--|-----3-----------0-----0--|
--1-----------------------|--1-----------------------|
--------------3-----------|--------------3-----------|
--------------------------|--------------------------|

--3--------3--------|--3--------3--------|
--3--------3--------|--5--------5--------|
--3--------3--------|--5--------5--------|
--5--------5--------|--5--------5--------|
--5--------5--------|--3--------3--------|
--3--------3--------|--------------------|
\\
--------------------------|--------------------------|
--------------------------|--------------------------|
-------19b----------------|----19b--19b--19b--19b----|
--------------------------|--------------------------|
--------------------------|--------------------------|
--------------------------|--------------------------|

--16p15----15-------|--------------------|
--------------------|--11-------8h11-----|
--------------------|--------------------|
--------------------|--------------------|
--------------------|--------------------|
--------------------|--------------------|
       
                                                   
--------1-----------------|--------1-----------------||
-----------1--------3-----|-----------1--------3-----||
-----3-----------0-----0--|-----3-----------0-----0--||
--1-----------------------|--1-----------------------||
--------------3-----------|--------------3-----------||
--------------------------|--------------------------||
\\
--------------------------|--------------------------||
--8-----8-----8-----8-----|--8-----8-----8-----8-----||
--------------------------|--------------------------||
--------------------------|--------------------------||
--------------------------|--------------------------||
--------------------------|--------------------------||




=======
Verse 1
=======

Gmin                 F
You don't throw your life away

C       Gmin
Going inside

Gmin                F
You get to know who watching you

        C          Gmin
And you decide who resides

Gmin    F
In your body

             C
Where you're slow

          Gmin  
Where you go, doesn't matter

               Gmin      
Cos there will come a time

     F                 C         Gmin
When time goes out the window

           Bb                    F
And you'll learn to drive out of focus

    Cmin         Gmin
I'm you

       Bb         F
And if anything unfolds,

     Cmin          Eb
It's supposed to

Ooo


============
Repeat Intro
============


=======
Verse 2
=======

Gmin                 F
You don't throw your time away

         C        Gmin
Sitting still

Gmin              F
I'm in a chain of memories

        C         Gmin
It's my will

      Gmin                F
And I had to consult some figures

       C          Gmin
Of the past

      Gmin         F
And I know someone after me

        C              Gmin
Will go right back

Bb      F
I'm not telling 

  Cmin     Gmin
A view

Bb            F
I've got this night

     Cmin      Eb
To unglue

Bb             F      Cmin   Gmin
I'll loot this spite away

   Bb                      F
By doing things there's no reason

   Cmin     Eb
To do


Ooo

=====
Outro  
=====



                                           Fig A Repeat x 3
|-1--1--1---1--1--1---3--3--3--3--3--3--|----------------------------|
|-3--3--3---1--1--1---5--5--5--5--5--5--|----------------------------|
|-3--3--3---2--2--2---5--5--5--5--5--5--|*-------10-----------------*|
|-3--3--3---3--3--3---5--5--5--5--5--5--|*----8------8--------12----*|
|-1--1--1---3--3--3---3--3--3--3--3--3--|--6---------------10-----10-|
|-----------1--1--1---------------------|---------------8------------|


|-1-1-1-1-1--
|-1-1-1-1-1--
|-2-2-2-2-2--
|-3-3-3-3-3--
|-3-3-3-3-3--
|-1-1-1-1-1--


Repeat Fig A


End on Gmin.

                                ***Someone's***


version 1 :

Transcribed by Sean Brokenshire
seanfrusc@hotmail.com

PLAYING NOTES:
***************************************
*                                     *
* Strum in this pattern throughout:   *
*                                     *
*      |    |\   |     |\  |\  |\     *
* |: Down, Down, Up,  Up, Down,Up :|  *
*                                     *
***************************************


INTRO: - Drum and Guitar

Gmin x4


VERSE 1 - Drum and Guitar and Vocal


Gmin                  Cmin
Someone's waiting to fly with me

Gmin                 Cmin
Someone's saying goodbye 

              Bb                  Cmin
Everytime she says hello cuz they both

Bb                Cmin
Connect no one to show

    Gmin                   Cmin
But I'm floating down this air stream

Gmin                  Cmin
I'm floating and it's every dream

     Bb               Cmin
I've ever had and I'm so

Bb                     Cmin
Happy and sad cuz they both

Eb                   F               
Connect me with when I've never been a

        Gmin
Earth body



INSTRUMENTAL - Guitar and Drums

Gmin x4



VERSE 2 - Drums and Guitar and Vocals


Gmin           Cmin
Any house is a frame

Gmin                Cmin
Anything real has a friend

    Bb                   Cmin
We talk ourselves out of it

Bb                   Cmin          Cmin                  
Without precounts to hidden not-forgives (?)

Gmin                        Cmin
Everywhere I look there's a face

Gmin                    Cmin
Everyone deserved has a place

Bb                Cmin
Crowding's just a word

Bb                Cmin         Cmin
Everytime draws a light        bright

Gmin               Cmin
Hold and turn me infinite

Gmin               Cmin 
Hold and turn me infinite

Bb                 Cmin
Someone's taken me all

Bb                 Cmin    Cmin     Gmin  
Someone's taken me all,    over out there






                            ***First Season***


*F#min on 9th fret of A string

Eb                   Cmin          Ab     Bb     Cmin
Let the pretend take over and that season be the first.

Eb                 Cmin          Ab     Bb   Cmin   Ab       Bb       Cmin
Shadows we're in become us so we set up interspersed between here and away.

Ab          Bb          Cmin     Bb      Ab
Become your space every day

Eb               Cmin           Ab                    Bb        Cmin
When you changes up my row it's slates when time will turn to a room

Eb                           Cmin               Ab      Bb      Cmin
Light starts being there to talk about all his feeling for the moon

   Ab       Bb          Cmin     Bb       Ab
To even the lie, damn him.

   Fmin             Ab             Fmin            Ab
Hey


Eb         Fmin    Ab               Fmin   Ab      Fmin       Ab   Eb
   In that halo   Evil  Round that halo   Evil  It hangs by  Evil

      Fmin              Ab                 Fmin
You revolve now with my echo You rose interwound

   Ab                  Fmin         Ab            Eb
Actually people in the wrong  Come through and go on

         Fmin          Ab             Fmin        Eb             Fmin
? Leave my lonely mind a cell     Keep flowing on a drill   I keep holding

        Ab       Eb                   F#min*           Eb
on to myself  Be humble, take it the slow way  As i'm aloud

      F#min*           Cmin    Bb               Ab
Even holding on To my cell  ! of space that holds me

   Cmin    Bb               Ab      When you get to ! the first time, go to
My cell of space that holds me      the ?

Eb    Cmin     Eb    Cmin    Eb    Cmin       Eb




                     ***Wind Up Space***



Verse:
-|-----------------------------------------------
-|-----------------------------------------------
-|------4----------------------4-----------------
-|---------5----------------------5--------------
-|--7---------7-----5h7----7--------7------------
-|-----------------------------------------------

Chorus:
-|-----------------------------------------------
-|-7-------5-------------------------------------
-|-7-------4-------------------------------------
-|-7-------5-------------------------------------
-|-9-------3-------------------------------------
-|-----------------------------------------------




                           ***Away & Anywhere***



MAIN RIFF
|(6)-(6)--(4)(4)--6-|--------------
|(6)-(6)--(4)(4)--6-|--6-6-6-6-6-6-
|(6)-(6)--(5)(5)--6-|--------------
|-8---8----6--6---8-|--------------
|-8---8----6--6---8-|--------------
|-6---6----4--4---6-|--------------


|(6)-(6)--(4)(4)--6-|-------------
|(6)-(6)--(4)(4)--6-|--6-6-6-6----
|(6)-(6)--(5)(5)--6-|-------------
|-8---8----6--6---8-|-------------
|-8---8----6--6---8-|-------------
|-6---6----4--4---6-|-------------


Up-tempo bit

        "Ooooo  oooo"   "Ooooo  oooo"
Bbmin           Ab              Ebmin           Ebmin 
|               |               |               |




                             ***Remain***



Main riff
E||-------0-0----0-0-|------0-0---0-0-||
B||-------0-0----0-0-|------0-0---0-0-||This is only approximate,
G||-------0-0----0-0-|------0-0---0-0-||you may need to hit the 
D||-------5-5--------|------5-5-------||strings more than i've
A||---7-7-----5------|--7-7-----5-----||suggested
E||-------------7----|----------------||

Verse riff
E||--0-0-0-0-|-0-0-0---||
B||--0-8-0-0-|-0-8-0---||
G||--9---7---|-9---7---||
D||--------9-|---------||
A||----------|---------||
E||----------|---------||

Chords 1
A
And when you reach that point
B
You're a wall

Chords 2
E
With these riches, we walk and walk.
   D               C                   E
We give to this way cuz this is how we feel.

Outro Riff
   E               D          C        
E||-------------|-------------------------||
B||-------------|------8----------8-------||
G||-12---10---9-|--9-7---7----9-7---7-----||
D||-------------|----------9----------9-9-||
A||-------------|-------------------------||
E||-------------|-------------------------||

Background riff
E||-----------------------------||
B||-----------------------------||
G||--9--7--9--7-9--9--7--9-9--7-||
D||-----------------------------||
A||-----------------------------||
E||-----------------------------||

Play the chords like this:
    A   B   E   D   C
E||-0---0---0---0---0--||
B||-0---0---0---0---0--||
G||-0---0---9---7---5--||
D||-7---5---9---7---5--||
A||-7---5---7---5---3--||
E||-5---3--------------||


Song Progression:
Main riff x2
Verse riff x2
Main riff x2
Verse riff x2
Main riff x2
Chords 1 x1
Main riff x1
Chords 1 x1
Main riff x2
Verse riff x2
Main riff x2
Verse riff x2
Main riff x2
Chords 1 x1
Main riff x1
Chords 1 x1
Chords 2 (Without vocals) x1
Chords 2 (With vocals) x2
Chords 2 with Outro Riff
Chords 2 with Outro Riff and Background Riff


                               ***Fallout***


Version 1 :

Transcribed by Jean Buchet - jeanbuchet@hotmail.com

/\  - slide into or out of (from/to "nowhere")

(E A D G B E)
 4/4
  
 main riff
|-----------------8-10----|
|-----5-6-----------------|
|--------------10---------|
|---7-----5/8-------------|
|-5-----------------------|
|-------------------------|


 Transition
|-----6---------------------------------------------------------|
|-------8------10--------5-------3-------1-------5-------3------|
|---7-------------10-------5-------3-------2-------5-------3----|
|-5---------10---------5-------3-------3-------5----------------|
|---------8----------3-------1---------------3---------5--------|
|------------------------------------1---------------3----------|


 
|------------------------------------|
|-----5-------1-------5-------3------|
|-------5-------2-------5-------3----|
|---5-------3-------5-------5--------|
|-1---------------3------------------|
|---------1---------------3----------|


 riff 2
|-----5------1---------3-3-3-3--3----|
|-----6------1------5--3-3-3-3--3----|
|-----7------2------5--3-3-3-3--3----|
|-----7------3------5--5-5-5-5--5----|
|-5-5-5------3--3-3-3--5-5-5-5--5----|
|--------1-1-1---------3-3-3-3--3----|




                             ***Ramparts***



There is 4 guitars overlapping each other in this song, i'm going to do my
best to tab them all. I'm not sure if the correct layout is to have every 
guitar written as the song goes, but i'm just going to put each guitar 
seperately, it will be harder to figure out the timing that way, i know, 
but it'd be Difficult for me to do otherwise. enjoy.


Acoustic 1:(main rythem)(repeat all 3x)

e|-------9---6----|-------8---4---|-------6------6-|-------6---2---|
B|-----6----------|-----4---------|-----2------2---|-----2---------|
G|*--6------------|---5-----------|---3------3-----|---3-----------|
D|*8-------8---8--|-6-------6---6-|-4------4-------|-4-------4---4-|
A|----------------|---------------|----------------|---------------|
E|----------------|---------------|----------------|---------------|

e|-------9---6----|-------8---4---|-------6------6-|-------6---2---|
B|-----6----------|-----4---------|-----2------2---|-----2---------|
G|---6------------|---5-----------|---3------3-----|---3-----------|
D|-8-------8---8--|-6-------6---6-|-4------4-------|-4-------4---4-|
A|----------------|---------------|----------------|---------------|
E|----------------|---------------|----------------|---------------|

e|----------------|-------9---6---|----------------|-------8---4---|
B|-------7--------|-----6---------|-------6--------|-----4---------|
G|-----8-----8----|---6-----------|-----6-----6----|---5-----------|
D|---8------------|-8-------8---8-|---6------------|-6-------6---6-|
A|-6-------6---6--|---------------|-4-------4---4--|---------------|
E|----------------|---------------|----------------|---------------|

e|----------------|-------9---6---|----------------|-------8---4---|
B|-------7--------|-----6---------|-------6--------|-----4---------|
G|-----8-----8----|---6-----------|-----6-----6----|---5----------*|
D|---8------------|-8-------8---8-|---6------------|-6-------6---6*|
A|-6-------6---6--|---------------|-4-------4---4--|---------------|
E|----------------|---------------|----------------|---------------|


Acoustic 2:(repeat 3x)

e|-18-------|-16-------|-14------|14--14-13-------|
B|-18-18-18-|-16-16-18-|-14-14-14|----------15-13-|
G|*---------|----------|---------|----------------|
D|*---------|----------|---------|----------------|
A|----------|----------|---------|----------------|
E|----------|----------|---------|----------------|

e|-18-------|-16-------|-14------|14--14-13-------|
B|-18-18-18-|-16-16-18-|-14-14-14|----------15-13-|
G|----------|----------|---------|----------------|
D|----------|----------|---------|----------------|
A|----------|----------|---------|----------------|
E|----------|----------|---------|----------------|


e|----------|-13-13-13-|--------|-11---11-9-8-|
B|-11-11-11-|----------|-9-9-9--|-------------|
G|----------|----------|--------|-------------|
D|----------|----------|--------|-------------|
A|----------|----------|--------|-------------|
E|----------|----------|--------|-------------|

e|----------|-13-13-13-|--------|-11-11--13-|
B|-11-11-11-|----------|-9-9-9--|-----------|
G|----------|----------|--------|----------*|
D|----------|----------|--------|----------*|
A|----------|----------|--------|-----------|
E|----------|----------|--------|-----------|




Electric solo 1:

e|-----------------------|------------------------------|
B|-----------------------|------------------------------|
G|-----------------------|------------------------------|
D|-/13-11--10h11-10--8---|-/13-11-10-11-10h11p10--8-6-8-|
A|-----------------------|------------------------------|
E|-----------------------|------------------------------|

e|------------|-------------|-----------------|
B|------------|-------------|-----------------|
G|------------|-------------|-----------------|
D|----8^v-----|---6--8^-----|-----/15----^v---|
A|-8----------|-8-----------|-----------------|
E|------------|-------------|-----------------|

e|---------------|--------------------|-------------------------------------|
B|---------------|--------------------|-------------------------------------|
G|-/15-13--------|-/15-13-------------|15-13-------15-13--------------------|
D|---------16-15-|--------16-15^v^v^v-|------16-15------16-15^v^v^v^v^v^v^v^|
A|---------------|--------------------|-------------------------------------|
E|---------------|--------------------|-------------------------------------|

e|---------------------------|-----------------------|
B|---------------------------|-----------------------|
G|-----6--8^-8-6-5-5h6p5-5-6-|-----6--8^-8-6-5--6-6-6|
D|-6-8-----------------------|-6h8-------------------|
A|---------------------------|-----------------------|
E|---------------------------|-----------------------|

e|--------------------------|------------------------|
B|--------------------------|----------------7-6-7-6-|
G|-----6-8^-8-6-5h6-6-5h6-6-|-----6--8^-8-6----------|
D|-6-8----------------------|-6-8--------------------|
A|--------------------------|------------------------|
E|--------------------------|------------------------|


e|--------------|------------|
B|-13^____------|-13^______--|
G|--------------|------------|
D|--------------|------------|
A|--------------|------------|
E|--------------|------------|

e|---------------|-12^_____---|
B|-------13^___--|------------|
G|-10-11---------|------------|
D|---------------|------------|
A|---------------|------------|
E|---------------|------------|

e|----------13---------------|/13------------------------|
B|/16-13-14----16-14-13-14---|----16-14---13-14-16-14-13-|
G|---------------------------|---------------------------|
D|---------------------------|---------------------------|
A|---------------------------|---------------------------|
E|---------------------------|---------------------------|

e|---------------------------|/13---------------------------------|
B|-13-14p13--13h14p13--------|----16-14--13-14--13h14p13----------|
G|--------------------15-15--|---------------------------15-13-15-|
D|---------------------------|------------------------------------|
A|---------------------------|------------------------------------|
E|---------------------------|------------------------------------|

e|-16--13------------------|
B|--------16--14-13-----14-|
G|-------------------------|
D|-------------------------|
A|-------------------------|
E|-------------------------|



Electric solo 2:
e|------------|-------------|
B|------------|-------------|
G|---rest-----|----rest-----|
D|------------|-------------|
A|------------|-------------|
E|------------|-------------|

e|---4-6/8--6---|----9-11/13--11-/13-|-16p13--13/14p13--|
B|-6------------|-11-----------------|------------------|
G|--------------|--------------------|------------------|
D|--------------|--------------------|------------------|
A|--------------|--------------------|------------------|
E|--------------|--------------------|------------------|

e|-18^v____--|-18--16--14-----13---|-14-16-14-13-------|
B|-----------|---------------------|---------------14--|
G|-----------|---------------------|-------------------|
D|-----------|---------------------|-------------------|
A|-----------|---------------------|-------------------|
E|-----------|---------------------|-------------------|

e|-/13--9-8-9--|---------------|--------------|
B|-------------|-/11/9---------|-/11-9--------|
G|-------------|---------------|-------10--10-|
D|-------------|---------------|--------------|
A|-------------|---------------|--------------|
E|-------------|---------------|--------------|

e|--------------------|------------------------|
B|--------------------|------------------------|
G|-/13-13-13--11-10-11|-10h11p10-----10--------|
D|--------------------|----------11------13-11-|
A|--------------------|------------------------|
E|--------------------|------------------------|

e|-----------|-13p11/9---|-----------------------|
B|-----------|-----------|-----------------------|
G|-----------|-----------|-----------------------|
D|-10--8--8--|-----------|---13-15---11----------|
A|-----------|-----------|----------------13-13--|
E|-----------|-----------|-----------------------|

e|--------------------------|-------------------------|
B|--------------------------|-------------------------|
G|--------------------------|-----6-8/10-8-6-5-6-5-6--|
D|-6h8-8-6h8-8-6h8-8-6h8-8--|-6h8---------------------|
A|--------------------------|-------------------------|
E|--------------------------|-------------------------|

e|------------------------------|----------------------|
B|------------------------------|----------------------|
G|-----6-8/10-8-6--5h6-6-5h6-6--|----6-8/10-8-6-5h6-6--|
D|-6h8--------------------------|-/8-------------------|
A|------------------------------|----------------------|
E|------------------------------|----------------------|

e|-------------------------------|
B|-------------------------------|
G|----6-8/10-8-5h6-6-5h6p5-------|
D|-/8-----------------------8-8--|
A|-------------------------------|
E|-------------------------------|

                             ***With No One***

(for the first part of the song he plays 
th chords arpeggio style and then switches
to strumming them)

A   E                     F#m
    Seal your wide shores
A       E            F#m
   With no one in between
A      E                 F#m
   You feel your fading dial
    A              E
You know someone's happened
         F#m                  E         D    A
And you shouldn't feed these things but lets go
A                E
Fading away your nights
             F#m
You fade to white
A                E
Fading away your nights
             F#m
You fade to white
A                E
Fading away your nights
             F#m
You fade to white
A                E
Fading away your nights
             F#m     E    D
You fade to white
    F#m              E         D
You lay me down as I go to the store
F#m                    E       D    E  D  
Sorrow ate me, I'm not me anymore
F#m                 E        D
Play these heavens one more time
F#m                E       D      E   D   
I'm not yours and I'm not mine
F#m        E D
Fly around
F#m        E D
Fly around
F#m        E D
Fly around
E          D  
Fly around
rpt. "fly around" part till end


                            ***Murderers***


  Part A
E||-------------------9-12-----------------------------------9-------------||
B||---12----9-10--10-------12-10-9-10-----12---9-10--10---12---12-10-9-10--||
G||------------------------------------------------------------------------||
D||----4------4---4-------4--444444--------4-----4---4--------4----444444--||
A||------low E and D strings played on another guitar----------------------||
E||--2------2---2------2-----------------2-----2---2------2----------------||

  Part B               Part C
E||----------------------------------------------------------------------------||
B||--9---10--9---9-------7-7-----9--10--10-10-10---7-7-----9-9-12-10--10-10-10-||
G||--9---11--9---10------------------------------------------------------------||
D||--9---11--9---11------------------------------------------------------------||
A||--7---9---7---11-----5-5-5-7-7-7-9--9--9--9----5-5-5-7-7-7--9-----9--9--9---||
E||----------------------------------------------------------------------------||

E||-----12--12-------------------------------------------||
B||-----------------9--10-10-10-10-10-----7-7-----9--9---||
G||-------------------------------------------------10---||
D||-------------------------------------------------11---||
A||--------------7-7-7-9-9--9--9--9------5-5-5/7-7--11---||
E||---10--10--10-----------------------------------------||

  Part D
E||-------------------------------------------||  Song Progression
B||-----9---10--9--12-10---9---10--7----------||  Drum intro
G||--------------------------------8----------||  Part A
D||--------------------------------9--x2------||  Part B
A||---7---9---7---9------7---9-----9----------||  Part C
E||-------------------------------------------||  Part A
                                                  Part D
                                                  Part A
                                                  Part C
                                                  Part A



                           ***Invisible Movemant***


Intro: Guitar 1
-|----------------------------------------------------------------------
-|----------------------------------------------------------------------
-|-------5--------------4--------------5-------------4------------------
-|--7-7----7-------7-7----7-7-----7-7-----7-----7-7----7-7--------------
-|----------------------------------------------------------------------
-|----------------------------------------------------------------------
                                                                              
Guitar 2: Plays with intro and throughout the verses
-|----------------------------------------------------------------------
-|----------------------------------------------------------------------
-|-----5--------4----------5-------4-------5--------4--------5-------4--
-|----------------------------------------------------------------------
-|----------------------------------------------------------------------
-|-5--------3---------5--------3-------5-------3--------5--------3------
                                                                              
Fill 1: Before   Fill 2: Before    Fill 3: Before
2nd Verse        the Chorus         4th Verse
-|--------------|-----------------|----------------|--------------------
-|--------------|-----------------|----------------|--------------------
-|-4h5-4--------|--4/2------------|----------------|--------------------
-|--------------|-----------------|----------------|--------------------
-|--------------|-----------------|---5h7-7--------|--------------------
-|--------------|-----------------|----------------|--------------------
                                                                              
Intro: Guitar 1 and 2

Verse 1: Guitar 2
Extra time when you think its all over
live a life when you've rolled over and died
I don't feel pain
I don't travel this line
(Fill 1)

Verse 2: Guitar 2
Levitate and feel the ground get closer
Ecstacy made every step a mile
When it becomes a waste 
Why hold on for dear life
(Fill 2)

Chorus:
F    G           Am
Wide pain in the blue white break up
F     G     Am
All Paths divide
F         G     Am           F G E
Life has a way of opening up

Verse 3: Guitar 2
All names travel with their owners
Though they've no space, they move all around
I see invisible movement in every town
(Fill 3)

Verse 4: Guitar 2
Every cry is a seperate emotion
Happenings are planned and then they arrive
They go on with or without you there
(Fill 2)

Chorus:
F    G           Am
Wide pain in the blue white break up
F    G     Am
All Paths divide
F         G     Am           F  G E
Life has a way of opening up



                            ***Representing***


 
Bm                 D       Em
I'm representing a face of light
Bm                              D      Em 
I'll take your place, it's only right 
F#m             
I don't hesitate this time 
G         A           Bm
I'm only seen 'till I arrive 
Bm                      D        Em
I'm reappearing and I'm holding back 
Bm                       D  Em
I steal this field if I relax 
F#m
You've never moved the end 
G                 A            Bm
You'll shake out of yourself again 
Em                               F#
Revealing the face that's frozen cold 
           Bm D G
Hey y'all 
Em                        F#
Raise the rain the other way 
          Bm D G
Hey y'all



                            ***In Rhyme***



C  Em Am
I fail to do 
C Em Am
what I'm trying 
C Em Am
I've been these walls 
C Em Am
And everyone who dies hears others 
F Em Dm
times 

C Em Am
This immediacy 
C Em Am
is unknown 
C Em Am
to me and appears to be 
C Em Am
unreached by everyone I've 
F Em Dm
known 

F                 E           Dm Am
Show me unfocused fears in disguise 
F                  E        Dm Am
It shows me I must live to die 

C Em Am
This lake 
C Em Am
is on fire 
C Em Am
It's been every dream to me 
C Em Am
it's been every 
F Em Dm
desire 

C Em Am
I awaken 
C Em Am
Filling up the space 
C Em Am
I back away 
C Em Am
And it covers me up all 
F Em Dm
cozy 

F                   E        Dm Am
These waves are the call of time 
F                          E
What's sent ahead is sent behind 
Dm Am
As in rime 



                            ***Saturation***


Dm                              C Bb Dm
I feel that wheels are turning 'round 
Dm    C Bb Dm
Replay 
C       Bb
 We made you
Dm       C
 We made you 
C         Bb
 We made you  
Dm        C
what you were 
Dm
We brought them up that hill 
Dm                              C Bb Dm
We brought them up to roll them down
Dm  C Bb Dm
down 
F            C    Gm             Dm
In the morning, light might clean you     
F            C    Gm                  F 
   
C Gm Dm F C Bb C

In the morning, light might clean you out
Dm
I'm sad that time escapes me 
Dm                        C  Bb Dm
It pushes ahead of me all day 
C       Bb
 Remind me 
Dm      C
 Remind me
C      Bb      Dm         C
Remind me what I could've been 
Dm
I feel the faster I'm going 
Dm                     C  Bb
The more I am slowing down 
F        C     Gm         Dm
I'm the focus of the bring down 
F       C     Gm                 F   
I'm the one who captures what he lost 
C   Gm    Dm
And turns it around


                          ***Moments Have You*** 


A                     E        D
All around you is to feel and watch you 
A                     E        D
They make patterns to peel the sound 
Bm               A           E
And I find it a pain that goes along 
Bm               A       E
With being in chaos's order 
A                    E      D
I've a feild now to realize in 
A                      E          D
Watch the main jump It has fears of 
Bm              A      E
you being there rising up 
Bm                      A             E
Like who you're introduced to saying goodbye 
F#m                  A          E
All again and you're always free now 
F#m                    A       E
I didn't fake this so you could fade away 
Bm                   F#m        E
I've been careful to take what I've spent 
Bm         F#m    E
I remember every end 

Repeat Verse and Chorus with
Alt. Lyrics

Ending:
A         E       F#m
A knot only found 
A      E
Never made 
Bm            F#m     E     Bm
Everyday we reload feelings 
D       E
When we play

Outro:F#m D E
Bm E
F#m D E
Bm E




THERE TOU GO MY FELLOW GUITAR MATES!!
THE REASON THAT I TABBED/CHORDED THIS
ALBUM, WAS NOT ONLY BECAUSE I PRAISE
FRUSCIANTE, BUT ALSO BECAUSE I DEDICATE
THIS TO MY DEAR FRIEND Tarek Al Bahri.
TIS MAN GOT 4 OF J.F. CDs STOLEN BY ME
AND ONLY 3 RETURNED (I lost "To Record
Only Water For Ten Days")THIS IS MY WAY OF APPOLOGIZING
SORRY Tarek.....

if in any doubt mail: linden_004@yahoo.com
comments
print report bad tab
2 comments total.
0 reply
ImBrianFellow wrote on September 15 2004, 12:00 am

Great...

0 reply
rhcpcure2826 wrote on October 11 2004, 12:00 am

most of these tabs are innacurate,




and all of them were stolen from www.jftab.com

I want to post or [tab]
guest
You may want to rate the tab now too:
select rating
Please do not post tabs as comments. Select "correction" instead!