Oops, an error
Loading. Please wait.

Instant Karma Tab

ver1
ver1

Whole song

More versions @911Tabs.com
5,523 views 4 this week
no commentswrite comment
1 2 3 4 5
please rate
Autoscroll
+/-
esc
set tempo
stop
WARNING: You are trying to view
                                    content from Ultimate-Guitar.com
                                    in an unauthorized application,
                                    which is prohibited.

                                    Please use an official Ultimate
                                    Guitar Tabs application for iPhone,
                                    iPad or Android to access legitimate
                                    chords, guitar, bass, and drum tabs
                                    from Ultimate-Guitar.com database.

                                    Type "ultimate guitar tabs" in Apple
                                    App Store's or Android Market's
                                    search to find the application.
                                Instant Karma!                                  


                                                                     John Lennon
Guitar



     W                   W                     Q    Q    Q    Q     
E||-------------------|-------------------||---0----0----0----0----|
B||-------------------|-------------------||---2----2----2----2----|
G||-------------------|-------------------||*--2----2----2----2----|
D||-------------------|-------------------||*--2----2----2----2----|
A||-------------------|-------------------||---0----0----0----0----|
E||-------------------|-------------------||-----------------------|


  Q    Q    Q    Q       Q    Q    Q    Q       Q    Q    Q    Q     
--2----2----2----2----|--0----0----0----0----|--2----2----2----2----|
--2----2----2----2----|--2----2----2----2----|--2----2----2----2----|
--2----2----2----2----|--2----2----2----2----|--2----2----2----2----|
--4----4----4----4----|--2----2----2----2----|--4----4----4----4----|
--4----4----4----4----|--0----0----0----0----|--4----4----4----4----|
--2----2----2----2----|----------------------|--2----2----2----2----|


  Q    Q    Q    Q       Q    Q    Q    Q       Q    Q    Q    Q     
--0----0----0----0----|--2----2----2----2----|--1----1----3----3----|
--2----2----2----2----|--2----2----2----2----|--1----1----0----0----|
--2----2----2----2----|--2----2----2----2----|--2----2----0----0----|
--2----2----2----2----|--4----4----4----4----|--3----3----0----0----|
--0----0----0----0----|--4----4----4----4----|--3----3----2----2----|
----------------------|--2----2----2----2----|--1----1----3----3----|


  Q    Q    Q    Q       Q    Q    Q    Q       Q    Q    Q    Q     
--0----0----0----0----|--2----2----2----2----|--2----2----2----2----|
--2----2----2----2----|--3----3----3----3----|--3----3----3----3----|
--2----2----2----2----|--2----2----2----2----|--2----2----2----2----|
--2----2----2----2----|--0----0----4----4----|--4----4----4----4----|
--0----0----0----0----|------------4----4----|--2----2----0----0----|
----------------------|----------------------|----------------------|


  Q    Q    Q    Q       Q    Q    Q    Q       Q    Q    Q    Q     
--2----2----2----2----|--2----2----2----2----|--0----0----0----0----|
--3----3----3----3----|--3----3----3----3----|--1----1----1----1----|
--2----2----2----2----|--2----2----2----2----|--2----2----2----2----|
--0----0----4----4----|--4----4----4----4----|--2----2----2----2----|
------------4----4----|--2----2----0----0----|--3----3----2----2----|
----------------------|----------------------|----------------------|


  Q    Q    Q    Q       Q    Q    Q    Q       Q    Q    Q    Q       
--0----0----0----0----|--2----2----2----2----|--0----0----0----0-----||
--1----1----1----1----|--3----3----3----3----|--0----0----0----0-----||
--2----2----2----2----|--2----2----2----2----|--1----1----1----1----*||
--2----2----2----2----|--0----0----0----0----|--2----2----2----2----*||
--0----0----0----0----|----------------------|--2----2----2----2-----||
------------3----3----|----------------------|--0----0----0----0-----||


  Q    Q    Q    Q       Q    Q    H           Q    Q    Q    Q     
--2----2----2----2----|--2------------------|--2----2----2----2----|
--3----3----3----3----|--3------------------|--3----3----3----3----|
--2----2----2----2----|--2------------------|--2----2----2----2----|
--0----0----4----4----|--4------------------|--0----0----4----4----|
------------4----4----|--2------------------|------------4----4----|
----------------------|---------------------|----------------------|


  Q    Q    Q    Q       Q    Q    Q    Q       Q    Q    Q    Q     
--2----2----2----2----|--0----0----0----0----|--0----0----0----0----|
--3----3----3----3----|--1----1----1----1----|--1----1----1----1----|
--2----2----2----2----|--2----2----2----2----|--2----2----2----2----|
--4----4----4----4----|--2----2----2----2----|--2----2----2----2----|
--2----2----0----0----|--3----3----2----2----|--0----0----0----0----|
----------------------|----------------------|------------3----3----|


  Q    Q    Q    Q       Q    Q    Q    Q       Q    Q    Q    Q     
--2----2----2----2----|--0----0----0----0----|--3----3----2----2----|
--3----3----3----3----|--0----0----0----0----|--0----0----3----3----|
--2----2----2----2----|--1----1----1----1----|--0----0----2----2----|
--0----0----0----0----|--2----2----2----2----|--0----0----0----0----|
--0----0----0----0----|--2----2----2----2----|--2----2----0----0----|
----------------------|--0----0----0----0----|--3----3--------------|


  Q    Q    Q    Q       Q    Q    Q    Q       Q    Q    Q    Q     
--0----0----0----0----|--3----3----2----2----|--0----0----0----0----|
--0----0----0----0----|--0----0----3----3----|--0----0----0----0----|
--0----0----0----0----|--0----0----2----2----|--0----0----0----0----|
--2----2----2----2----|--0----0----0----0----|--2----2----2----2----|
--2----2----2----2----|--2----2----0----0----|--2----2----2----2----|
--0----0----0----0----|--3----3--------------|--0----0----0----0----|


  Q    Q    Q    Q       Q    Q    Q    Q       Q    Q    Q    Q     
--3----3----2----2----|--0----0----0----0----|--2----2----2----2----|
--0----0----3----3----|--0----0----0----0----|--3----3----3----3----|
--0----0----2----2----|--0----0----0----0----|--2----2----2----2----|
--0----0----0----0----|--2----2----2----2----|--0----0----0----0----|
--2----2----0----0----|--2----2----2----2----|--0----0----0----0----|
--3----3--------------|--0----0----0----0----|----------------------|


  Q    Q    Q    Q       Q    Q    Q    Q       Q    Q    Q    Q     
--0----0----0----0----|--0----0----0----0----|--2----2----2----2----|
--0----0----0----0----|--2----2----2----2----|--2----2----2----2----|
--1----1----1----1----|--2----2----2----2----|--2----2----2----2----|
--2----2----2----2----|--2----2----2----2----|--4----4----4----4----|
--2----2----2----2----|--0----0----0----0----|--4----4----4----4----|
--0----0----0----0----|----------------------|--2----2----2----2----|


  Q    Q    Q    Q       Q    Q    Q    Q       Q    Q    Q    Q     
--0----0----0----0----|--2----2----2----2----|--0----0----0----0----|
--2----2----2----2----|--2----2----2----2----|--2----2----2----2----|
--2----2----2----2----|--2----2----2----2----|--2----2----2----2----|
--2----2----2----2----|--4----4----4----4----|--2----2----2----2----|
--0----0----0----0----|--4----4----4----4----|--0----0----0----0----|
----------------------|--2----2----2----2----|----------------------|


  Q    Q    Q    Q       Q    Q    Q    Q       Q    Q    Q    Q     
--2----2----2----2----|--1----1----3----3----|--0----0----0----0----|
--2----2----2----2----|--1----1----0----0----|--2----2----2----2----|
--2----2----2----2----|--2----2----0----0----|--2----2----2----2----|
--4----4----4----4----|--3----3----0----0----|--2----2----2----2----|
--4----4----4----4----|--3----3----2----2----|--0----0----0----0----|
--2----2----2----2----|--1----1----3----3----|----------------------|


  Q    Q    Q    Q       Q    Q    H           Q    Q    Q    Q     
--2----2----2----2----|--2------------------|--2----2----2----2----|
--3----3----3----3----|--3------------------|--3----3----3----3----|
--2----2----2----2----|--2------------------|--2----2----2----2----|
--0----0----4----4----|--4------------------|--0----0----4----4----|
------------4----4----|--2------------------|------------4----4----|
----------------------|---------------------|----------------------|


  Q    Q    Q    Q       Q    Q    Q    Q       Q    Q    Q    Q     
--2----2----2----2----|--0----0----0----0----|--0----0----0----0----|
--3----3----3----3----|--1----1----1----1----|--1----1----1----1----|
--2----2----2----2----|--2----2----2----2----|--2----2----2----2----|
--4----4----4----4----|--2----2----2----2----|--2----2----2----2----|
--2----2----0----0----|--3----3----2----2----|--0----0----0----0----|
----------------------|----------------------|------------3----3----|


  Q    Q    Q    Q       Q    Q    Q    Q       Q    Q    Q    Q     
--2----2----2----2----|--0----0----0----0----|--3----3----2----2----|
--3----3----3----3----|--0----0----0----0----|--0----0----3----3----|
--2----2----2----2----|--1----1----1----1----|--0----0----2----2----|
--0----0----0----0----|--2----2----2----2----|--0----0----0----0----|
--0----0----0----0----|--2----2----2----2----|--2----2----0----0----|
----------------------|--0----0----0----0----|--3----3--------------|


  Q    Q    Q    Q       Q    Q    Q    Q       Q    Q    Q    Q     
--0----0----0----0----|--3----3----2----2----|--0----0----0----0----|
--0----0----0----0----|--0----0----3----3----|--0----0----0----0----|
--0----0----0----0----|--0----0----2----2----|--0----0----0----0----|
--2----2----2----2----|--0----0----0----0----|--2----2----2----2----|
--2----2----2----2----|--2----2----0----0----|--2----2----2----2----|
--0----0----0----0----|--3----3--------------|--0----0----0----0----|


  Q    Q    Q    Q       Q    Q    Q    Q       Q    Q    Q    Q     
--3----3----2----2----|--0----0----0----0----|--2----2----2----2----|
--0----0----3----3----|--0----0----0----0----|--3----3----3----3----|
--0----0----2----2----|--0----0----0----0----|--2----2----2----2----|
--0----0----0----0----|--2----2----2----2----|--0----0----0----0----|
--2----2----0----0----|--2----2----2----2----|--0----0----0----0----|
--3----3--------------|--0----0----0----0----|----------------------|


  Q    Q    Q    Q       Q    Q    Q    Q       Q    Q    Q    Q     
--0----0----0----0----|--0----0----4----4----|--2----2----2----2----|
--0----0----0----0----|--2----2----5----5----|--2----2----2----2----|
--1----1----1----1----|--2----2----6----6----|--2----2----2----2----|
--2----2----2----2----|--2----2----6----6----|--4----4----4----4----|
--2----2----2----2----|--0----0----4----4----|--4----4----4----4----|
--0----0----0----0----|------------4----4----|--2----2----2----2----|


  Q    Q    Q    Q       Q    Q    Q    Q       Q    Q    Q    Q     
--0----0----4----4----|--2----2----2----2----|--0----0----4----4----|
--2----2----5----5----|--2----2----2----2----|--2----2----5----5----|
--2----2----6----6----|--2----2----2----2----|--2----2----6----6----|
--2----2----6----6----|--4----4----4----4----|--2----2----6----6----|
--0----0----4----4----|--4----4----4----4----|--0----0----4----4----|
------------4----4----|--2----2----2----2----|------------4----4----|


  Q    Q    Q    Q       Q    Q    Q    Q       Q    Q    Q    Q     
--2----2----2----2----|--1----1----3----3----|--0----0----4----4----|
--2----2----2----2----|--1----1----0----0----|--2----2----5----5----|
--2----2----2----2----|--2----2----0----0----|--2----2----6----6----|
--4----4----4----4----|--3----3----0----0----|--2----2----6----6----|
--4----4----4----4----|--3----3----2----2----|--0----0----4----4----|
--2----2----2----2----|--1----1----3----3----|------------4----4----|


  Q    Q    Q    Q       Q    Q    Q    Q       Q    Q    Q    Q     
--3----3----2----2----|--0----0----0----0----|--3----3----2----2----|
--0----0----3----3----|--0----0----0----0----|--0----0----3----3----|
--0----0----2----2----|--0----0----0----0----|--0----0----2----2----|
--0----0----0----0----|--2----2----2----2----|--0----0----0----0----|
--2----2----0----0----|--2----2----2----2----|--2----2----0----0----|
--3----3--------------|--0----0----0----0----|--3----3--------------|


  Q    Q    Q    Q       Q    Q    Q    Q       Q    Q    Q    Q     
--0----0----0----0----|--3----3----2----2----|--0----0----0----0----|
--0----0----0----0----|--0----0----3----3----|--0----0----0----0----|
--0----0----0----0----|--0----0----2----2----|--0----0----0----0----|
--2----2----2----2----|--0----0----0----0----|--2----2----2----2----|
--2----2----2----2----|--2----2----0----0----|--2----2----2----2----|
--0----0----0----0----|--3----3--------------|--0----0----0----0----|


  Q    Q    Q    Q       Q    Q    Q    Q       Q    Q    Q    Q     
--2----2----2----2----|--0----0----0----0----|--3----3----2----2----|
--3----3----3----3----|--0----0----0----0----|--0----0----3----3----|
--2----2----2----2----|--1----1----1----1----|--0----0----2----2----|
--0----0----0----0----|--2----2----2----2----|--0----0----0----0----|
--0----0----0----0----|--2----2----2----2----|--2----2----0----0----|
----------------------|--0----0----0----0----|--3----3--------------|


  Q    Q    Q    Q       Q    Q    Q    Q       Q    Q    Q    Q     
--0----0----0----0----|--3----3----2----2----|--0----0----0----0----|
--0----0----0----0----|--0----0----3----3----|--0----0----0----0----|
--0----0----0----0----|--0----0----2----2----|--0----0----0----0----|
--2----2----2----2----|--0----0----0----0----|--2----2----2----2----|
--2----2----2----2----|--2----2----0----0----|--2----2----2----2----|
--0----0----0----0----|--3----3--------------|--0----0----0----0----|


  Q    Q    Q    Q       Q    Q    Q    Q       Q    Q    Q    Q     
--3----3----2----2----|--0----0----0----0----|--3----3----2----2----|
--0----0----3----3----|--0----0----0----0----|--0----0----3----3----|
--0----0----2----2----|--0----0----0----0----|--0----0----2----2----|
--0----0----0----0----|--2----2----2----2----|--0----0----0----0----|
--2----2----0----0----|--2----2----2----2----|--2----2----0----0----|
--3----3--------------|--0----0----0----0----|--3----3--------------|


  Q    Q    Q    Q      
--0----0----0----0----||
--0----0----0----0----||
--0----0----0----0----||
--2----2----2----2----||
--2----2----2----2----||
--0----0----0----0----||




Duration Legend
---------------
W - whole
H - half
Q - quarter
E - 8th
S - 16th
T - 32nd
X - 64th
. - note dotted
|-n-|  - n-tuplets


Tablature Legend
----------------
L - tied note
x - dead note
g - grace note
(n) - ghost note
> - accentuded note
NH - natural harmonic
AH - artificial harmonic
TH - tapped harmonic
SH - semi harmonic
PH - pitch harmonic
h - hammer on
p - pull off
b - bend
br - bendRelease
pb - preBend
pbr - preBendRelease
brb - bendReleaseBend
\n/ - tremolo bar dip
\n - tremolo bar dive
-/n - tremolo bar Release up
/n\ - tremolo bar inverted dip
/n - tremolo bar return
-\n - tremolo bar Release down
S - shift slide
s - legato slide
/ -  slide into from below or out of upwards
\ -  slide into from above or out of downwards
~ - vibrato
W - wide vibrato
tr - trill
TP - tremolo picking
T - tapping
S - slap
P - pop
< - fade in
^ - brush up
v - brush down
comments
We did not receive enough feedback on this tab! Please rate:
print report bad tab
1 2 3 4 5
I want to post or [tab]
guest
You may want to rate the tab now too:
select rating
Please do not post tabs as comments. Select "correction" instead!