Oops, an error
Loading. Please wait.

Any Given Thursday Tab

54,846 views 39 this week
no commentswrite comment
1 2 3 4 5
excellent!
x 5
Autoscroll
+/-
esc
set tempo
stop
Contributor
Difficulty
intermediate
Hey! There's an official Ultimate Guitar app which is ideal
for learning songs when you're away from computer. Get the app
WARNING: You are trying to view
                                    content from Ultimate-Guitar.com
                                    in an unauthorized application,
                                    which is prohibited.

                                    Please use an official Ultimate
                                    Guitar Tabs application for iPhone,
                                    iPad or Android to access legitimate
                                    chords, guitar, bass, and drum tabs
                                    from Ultimate-Guitar.com database.

                                    Type "ultimate guitar tabs" in Apple
                                    App Store's or Android Market's
                                    search to find the application.
-3X5-
Standard Tuning
Capo 8

Part 1
e------------------------|
b------------------------|
g------------------------| x2
d--------0--2--4--0------|
a--2--4-------------4--0-|
e------------------------|

Part 2
e------------------------------------------|
b------------------------------------------|
g-------------------- x2 -> Back to Part 1-|
d--------0---0-----------------------------|
a--2--4----4---4-0-------------------------|
e------------------------------------------|

At the end, he goes from Part 1 straight to Part 3
Part 3
e------------------------|
b------------------------|
g------------------------| x4
d--2-4-2-0---(0)---------|
a----------4-----4-------|
e------------------------|

Song Intro

e--0---0---0---0--|
b--3---5---8---8--|
g--0---0---0---0--|
d--2---4---7---7--|
a--2---5---7---6--|
e--0---0---0---0--|

Verse

"I'm writing you to..."
e--0---0---0---0---0--    --0-0-0--|
b--3---3---3---3---0--    --3-3-3--|
g--0---0---0---0---2-- x2 --0-2-0--|
d--2---0---0---2---1--    --2-0-0--|
a--2---x---x---3---2--    --2-x-x--|
e--0---2---3-------0--    --0-2-3--|

Pre Chorus
Quick change of chords, have fun :)

"Didn't have a camera by..."
e--0---0---0---0---0--    -0-|
b--3---3---3---3---1--    -3-|
g--0---0---2---0---0-- x3 -0-| x 1
d--2---0---0---2---3--    -2-|
a--3---2---0---3---x--    -2-|
e--x---3---2-------1--    -0-|


"lose my way with words" - goes back to verse
e--0---0---0--|
b--3---3---3--|
g--2---0---2--|
d--0---2---4--|
a-------------|
e-------------|

"lose my way, but let me say" - goes to chorus
e--0--2--|
b--1--3--|
g--0--2--|
d--3--0--|
a-----x--|
e--1--2--|

Chorus
This is played 4 times, 8 if he repeats the chorus

"You should have seen that sunrise..."
e--3---0---0---0--|
b--3---5---1---3--|
g--0---5---0---0--| x4 (x8)
d--0---3---2---1--|
a--x---5---0---0--|
e--3---x---0---0--|


Played at 5:00 on DVD (not of the song)

e--0---0--------|
b--0---0--------|
g--0---2---etc--| repeat as necessary
d--2---4--------|
a--0---0--------|
e--0---0--------|

"I guess you had to be there..."
e--0---0---0------|
b--3---3---0------|
g--0---0---2-- ---| back to pre chorus
d--2---2---1------|
a--2---3---2------|
e--0-------0------|

Ending
Finger picking

e-------------------------------------5--|
b--1-----1------0-----0------0--3--2--2--|
g----0-----0------0-----0-------0-----0--| x 3
d------2-----2------1-----1-----0-----2--|
a--0------------0---------------0--0-----|
e----------------------------3-----------|

e--------------------------0-|
b--1-----0-----------------0-|
g-----0-----0--0-----2-----0-|
d-----------------2-----1--4-|
a--0-----2-----3-----2-----2-|
e--------------------------0-|

-No Such Thing-
This song is not very hard, but you have to listen to the strumming pattern.
Standard Tuning

Intro
Play this twice

e------x------x----x------x------x--x--x-|
b------x------x----x------x------x--x--x-|
g-----11-----11---11-----11-----11-11-11-|
d-----13-----13---13-----13-----13-11-14-|
a-----11-----11---11-----11-----11-11-11-|
e-0-0----0-0----0----0-0----0-0----------|


e------0------x----x------x------x--x--x-|
b------0------x----x------x------x--x--x-|
g-----11-----11---11-----11-----11-11-11-|
d-----14-----14---14-----14-----14-11-13-|
a-----11-----11---11-----11-----11-11-11-|
e-0-0----0-0----0----0-0----0-0----------|

Verse
Strumming is the same on the verse as the intro.

"Welcome to the real world..."
"So the good boys and girls..."
e---x---x--x-------------|
b---x---x--7-------------|
g--11--13--9--14--12--11-|
d--13--11--9--12--12--12-|
a--11---0--x--10--10--10-|
e---0---x--9---0---0---0-|

"Well I never lived the dreams..."
e---x---x--x--------4-|
b---x---x--7--1--2--2-|
g--11--13--9--3--3--3-|
d--13--11--9--2--2--2-|
a--11---0--x--x--x--x-|
e---0---x--9--2--2--2-|

Pre Chorus

"They love to tell you..."
e--0--0--0---0-    --x-|
b--0--0--0---0-    --x-|
g--4--6--9--13- x2 -11-|
d--2--4--7--11-    -13-|
a--0--0--0---0-    -11-|
e--------------    --0-|

"But something's better..."
e--0--0--0-----|
b--0--0--0-----|
g--3--4--4--11-|
d--2--2--2--13-|
a--x--0--x--11-|
e--2-----4---0-|


Chorus

"I wanna run through the halls..."
e----------x-|
b--3--10---x-|
g--5--12--11-|
d--5--10--13-|
a---------11-|
e--5--10---0-|

Bridge

"I am invincible..."
e--0--0---0--0---0--0---0--0----|
b--0--0---0--0---0--0---0--0--0-|
g--2--6---2--6---2--6---2--6--2-|
d--3--7-/-3--7-/-3--7-/-3--7--3-|
a--x--x---x--x---x--x---x--x--x-|
e--1--5---1--5---1--5---1--5--3-|


Solo

e--0--0--0---0-    --x-----|
b--0--0--0---0-    --x-----|
g--4--6--9--13- x2 -11-----|
d--2--4--7--11-    -13(11)-|
a--0--0--0---0-    -11-----|
e--------------    --0-----|

e--0--0--0--|
b--0--0--0--|
g--3--4--4--|
d--2--2--2--|
a--x--0--0--|
e--2-----4--|

Ending

"You will know what all this time is for"
e----------0--|
b--3--10---7--|
g--5--12---8--|
d--5--10---6--|
a----------x--|
e--5--10---0--|

-Back To You-
Standard Tuning
Concert Intro

e---9----9---------9-9------------------|
b----9-10-7-9--9-10---9-9-10p9-9-9~10-9-|
g----9--------------------------9-------|
d-7----------7-----------7--------7-----|
a---------------------------------------|
e---------------------------------------|

e-9------------9------------------------|
b--7-7h9~--10-9-7-7h9~-12----12----12---|
g------------------------9h11--9h11--9--|h
d--------7------------------------------|
a---------------------------------------|
e---------------------------------------|

e-----------------7-----------------7--|
b---12----12----12-10\9/10\9-9-9-9-9---|
g-11--9h11--9h11-----------------------|
d--------------------------------------|
a--------------------------------------|
e--------------------------------------|

e----------7----------------------------|
b-10\9/10\9-10-9h12-------12-------12---|
g------------------11p9p11--11p9p11--11-|
d---------------------------------------|
a---------------------------------------|
e---------------------------------------|


e--------------7------------9--9-------|
b------12-12-12-10\9/10\9/10--7-7-9-12-|
g-p9p11----------------------9---------|
d--------------------------------------|
a--------------------------------------|
e--------------------------------------|


e--------------------------------------|
b--------12-------12-------------------|
g-11p9p11--11p9p11--11p9p11------------|
d--------------------------------------|
a--------------------------------------|
e--------------------------------------|


Intro
The bass notes are played by the bass player
The electric guitar plays the same thing over and over

Lead Guitar:
e-----------7------------7--------|
b------10-9---------10-9---9-7----|
g----9------------9------------9--| x4
d--7------------7-----------------|
a---------------------------------|
e---------------------------------|

Rhythym Guitar:
e--0---4---0---0---4--|
b--0---0---0---0---0--|
g--2---2---2---1---2--| x4
d--2---2---0---4---2--|
a--0---x---2---2---x--|
e------2-------0---2--|


Verse

"Back To You..." / "Over you..."
e--0---0---0---0---0--|
b--0---0---0---0---0--|
g--2---2---2---1---2--|
d--2---2---0---4---2--|
a--0---x---2---2---x--|
e------2-------0---2--|


Chorus

"Yeah, I'm so good at forgetting..."
e--0---0---0--     --0---0---0---0---0---0--|
b--0---0---0--     --0---0---0---0---0---0--|
g--9---9---9-- x2  --9---9---9---9---4---9--|
d--9---7---7--     --9---7---7---7---4---9--|
a--7---4---5--     --7---9---4---5---2---7--|
e-------------     -------------------------|


Bridge

e--0---0---0---3--|
b--0---1---1---3--|
g--9---0---0---0--|
d--9---3---2---0--|
a--7---3---3---x--|
e------1-------3--|

"Leave the light..."
e--0---0---0--|
b--5---5---0--|
g--4---4---7--| x3
d--4---4---7--|
a--x---x---5--|
e--4---5---x--|

"for me too..."
e--5---7---x------|
b--5---7---3---5--|
g--7---9---4---6--|
d--7---9---2---4--|
a--x---x---3---5--|
e--7-- 9----------|


Solo
The intro rhythym guitar plays along
with this solo.
He may be using a slide for this solo.

e---------------------------------------|
b--12/14v-14v-14v---12/14\12--12-10-10--|
g---------------------------------------|
d---------------------------------------|
a---------------------------------------|
e---------------------------------------|

e-----------------------------------------------|
b--10\7-12/14-14\9v--14\9v--7-14\7p5--14b15r14--|
g-----------------------------------------------|
d-----------------------------------------------|
a-----------------------------------------------|
e-----------------------------------------------|


Ending riff

e---------------------7--|
b--7/9---7---7/9----7----|
g------9---------9-------| repeat as necessary
d------------------------|
a------------------------|
e------------------------|

-City Love-
Drop D tuning
*Chords played with the thumb on low E string. This song can be played with or without a 
In the concert, he plays without a pick.*

e--------------------------------------|
b--------------------------------------|
g----7--------7~-----------------------|
d-7h9-9h7-----x------------------------|
a--------9h7--9~-----------------------|
d-------------0~-----------------------|
note:the (0~9~x7~xx) is plucked

Solo:
e---------------------------------------|
b-10h12--10-----------------------------|
g------11--11p9-------9-9----9-9p11p9-9-|
d--------------11-9p12---9p12-----------|
a---------------------------------------|
d---------------------------------------|

e--------------------------------------|
b-----10-10-------10-10-10-10-10h12p10-|
g---9-9--9--11p9--9--9h-11-p9-9--9--9--|
d-12------------12---10-10-------------|
a--------------------------------------|
d--------------------------------------|

e---------10h12--10~--------------------|
b-10-10h12-----12---13p12h10------------|
g-9-------------------------13p12h10----|
d-----------------------------------12~-|
a---------------------------------------|
d---------------------------------------|

e----10-10-10--10-10-10----------12----|
b----8--8------8--8------10h12/14--10~-|
g----------10--------10----------------|
d-12~--------12--------12--------------|
a--------------------------------------|
d--------------------------------------|

e------------12-9------------10--------|
b-10~10h12/14----12h10~10~h12----------|
g--------------------------------------|
d--------------------------------------|
a--------------------------------------|
d--------------------------------------|

note: this part is relativlely intricate because
you have to povide quick taps in between the walk-down,
still quite fun though

e-b13p12h10-----------------------------|
b-----------10-13p12h10-----------------|
g----------------------10h13p12h10-7h10-|
d---------------------------------------|
a---------------------------------------|
d----------t----------------------t-----|

e---------------------------------------|
b------10-10-----------------------10---|
g-p9p7------12~-------------------------|
d--------------9-9h12p9h12-9-9-9-12-----|
a------------------------------------12-|
d-----t---------------------------------|

note:its hard to hear but "12" on the "a string"
is somewhat plucked in this sequence of notes also

e--------------------------------------|
b-13--13--13-12\8----------------------|
g----------------10~------------10h12/-|
d-------------------12p9h12p9h12-------|
a---12--12-----------------------------|
d--------------------------------------|


e--------------------------------------|
b--------------------------------------|
g-14p12p10-------------11-11-----------|
d---------12--12-------12-12-12h14-14h-|
a-----------14--12p10------------------|
d--------------------12-0--0-----------|


e-------------12h10h12-10--------------|
b--------10h12------------11h10-10-----|
g----------------------12-10h---12-12p-|
d-12-----------------------------------|
a---12h14------------------------------|
d--------------------------------------|


e---------------------------------------|
b-------------------------------10------|
g-10--------7h9-7h9-9h7-11p9------11p9h-|
d---14p12\11----------------12----------|
a-----------------------------12--------|
d---------------------------------------|


e--------------------------------------|
b---12h10--10--------------------------|
g-11-----11--11-9h11p9--9--------------|
d---------------------12-12------------|
a--------------------------0h9\7\5-----|
d--------------------------------------|


Verse

"I never liked this apple much..."
"She keeps a toothbrush at my place
e---------------------------------------------|
b---------------------------------------------|
g------/4--7--4-------------------------------|
d--/7--/5--7--5-7--4-----4--4-----4--4-----4--|
a--/7-----------7--5-----5--5-----5--5-----5--|
d---------------------7--5--5--0--5--5--0--5--|

e---------------------------------------------|
b---------------------------------------------|
g------/4--7--4-------------------------------|
d--/7--/5--7--5--7--4-----4--4-----4--4-----4-|
a--/7-----------7--5-----5--5-----5--5-----5--|
d---------------------7--0--0--0--0--0--0--0--|


Chorus

"I tell everyone I smile..."
e-------------------x---x----x---x---|
b-------------------12---6---12---6--|
g-------------------12---6---12---6--|
d--2---7---2---7-----9---4----9---4--|
a--3---8---3---8----10---5---10---5--|
d--3---8---3---8----10---5---10---5--|

First time through chorus, play this next
Second time, go to Bridge
e--------------------|
b--------------------|
g--------------------|
d--7--7/9\7--7--7/9--|
a--7--7/9\7--7--7/9--|
d--------------------|


Bridge

"...she called up and came to me..."
e--x----x----x---x----x--|
b--3---10---11---3---10--|
g--0----x----x---0----x--|
d--3---10---10---3---10--|
a--x----x----x---x----x--|
d--1----8----8---1----8--|

"And as her cltohes spun we spooned..."
e---x------3---x---x---2(3)--|
b--11(10)--3---5---3---3-----|
g---x------3---5---0---2-----|
d--10------5---5---3---0-----|
a---x------x---3---x---------|
d---8------5-------1---------|
Notes in parenthesis replace the note next to it.
John alternates between those chords


Solo
During the solo, the rhythym guitar plays these chords.
Note during rhythm guitar that an open Low E string is hit
between these chords.

Rhythym Guitar:
e----------------------------|
b---------------------5---5--|
g---------------------7---6--|
d-4---4---4---4---2---7---7--|
a-5---5---5---5---3---x---x--|
d-0---5---0---5---3---7---7--|


Lead Guitar:
e-----------------------------------------------------|
b--10/12------10--------------------------------------|
g--------9/11----11\9p7---9/11-10/11-----7-9----------|
d-----------------------9-------------/9-----/9--7-9--|
a-----------------------------------------------------|
d-----------------------------------------------------|

e-----------------------------------------------------|
b-------------------10---7----------------------------|
g--7-9/11-10/11------------7\6---/9-9\7/9\7-------7---|
d-----------------7----9-------0-/9-9\7/9\7---7h9-----|
a-----------------------------------------------------|
d-----------------------------------------------------|

e------10----10h12b13-10/--------10----13b-10-12----10-|
b--------------------------10h12----12-----------13----|
g-9/11----11-------------------------------------------|
d------------------------------------------------------|
a------------------------------------------------------|
d------------------------------------------------------|

e-----------------------------------------------------|
b-13-10-----------12-10--------10----------10---------|
g-------13\12-10--12-10h11-----9h11--9------9--9------|
d--------------------------12----------12--11--9------|
a------------------------------------------------12---|
d-----------------------------------------------------|

e--------------------------|
b--10--10-----------10-----|
g---9---9------------9-----|
d--12--11p9--12------9h11--|
a------------12--12--------|
d--------------------------|


Verse

"Friday evening we've been drinking..."
e-----------|
b-----------|
g-----------| x3
d--4--4-----|
a--5--5-----|
d--5--5--0--|

e----------------------------------|
b----------------------------------|
g----------------------------------|
d--4--2----------4--4--5--5--4--7--|
a--5--5--5p2p0---5--5--7--7--5--9--|
d--5--5----------------------------|

e--------------------------------|
b--------------------------------|
g--------------------------------|
d--5--5--4--4--2--2--5--5--4--4--|
a--7--7--5--5--4--4--7--7--5--5--|
d--------------------------------|

"But we close a tab..."
e-----------    --------------------|
b-----------    --------------------|
g----------- x3 --------------------|
d--4--4-----    --4--4-----------4--|
a--5--5-----    --5--5--2-5p2----5--|
d--5--5--0--    --5--5--------4--0--|


"Falling asleep to the sounds..."
e---------|
b---------|
g---------|
d--4---4--|
a--5---5--|
d--5---5--|


Ending

"I've got a city love..."
e----------|
b----------|
g----------| x6
d---2---7--|
a---3---8--|
d---3---8--|

"And I can't remember..."
e----------    -----------------5-----------|
b--12---6--    --------------5-----7--5-----|
g--12---6-- x2 --------4--7--6-----7--6-----|
d---9---4--    --4--7--5--7--------------7--|
a--10---5--    --5--7--------------------5--|
d--10---5--    --0-----------------------0--|
D chord is played over the riff at the end


-Somethings Missing-
E-B-E-F#-B-E

Intro

 Part 1:
 e--0-----------------------------------------------|
 b--0-----------------------------------------------|
f#--0------0-----0------0-----0---------------------| x3
 e--0----0-----0------0-----0-----2p0---------------|
 b--2--2-----4-------------------------4p0--2-2-(2)-|
 e------------------2-----4-------------------------|

 Part 2: The last note hammers-on to the verse
 e--0------------------------------------------|
 b--0------------------------------------------|
f#--0------0-----0------0-----0----------------| Go To Verse
 e--0----0-----0------0-----0------------------|
 b--2--2-----4--------------------2p0---0-0h---|
 e------------------2-----4-----------4--------|


Verse
John palm mutes these chords
After Verse 1, John plays Part 1 once
followed by Part 2, then to Verse 2

"I'm not alone..." / "I'm dizzy from..."
"When autumn comes..."
 e-----------------|
 b--0---0---0---0--|
f#--2---9---5---0--|
 e--0---0---0---4--|
 b--2---9---x---x--|
 e--0---0---5---4--|

Sometimes he adds to the chords as shown below.

 e---------------------------|
 b--0--0----0---0---0--------|
f#--2--0h2--9---5---0--------|
 e--0--0----0---0---2h4p2p0--|
 b--2--2----9---x---x--------|
 e--0--0----0---5---4--------|

Chorus
John plays this over and over on the Any Given Thursday video.
David LaBruyere plays the bass notes: E C# A B
Right before the bridge, he also plays the same thing.

"Something's missing..."
 e---0-----0----    --0----0--|
 b---0-----0----    --0----0--|
f#--12p10-10---- x2 -10---10--|
 e--11----11----    -12---12--|
 b---9----12p9--    --9----9--|
 e---0-----0----    --0----0--|

Bridge
He alternates between the 5 & 7 and the 7 & 9 notes

"I can't be sure that this..."
 e---------------|
 b--5------7-----|
f#--5(7)---7(9)--| x3
 e--5------7-----|
 b--x------x-----|
 e--5------7-----|

"For loneliness..."
 e---0----0--|
 b---0----0--|
f#---0----0--|
 e---7----9--|
 b--10---12--|
 e---9---11--|

Solo
The keyboard does a solo. If anyone feels like tabbing
out a guitar version of this, feel free to and submit it.

During this solo, john plays the chords from the verse once
except he replaces the first chord (020200) with (9x0900)

Chorus 2
This is played on the third time he plays the Chorus

"Something's missing..."
 e-----------------|
 b--0---0---0---0--|
f#--2---9---5---0--|
 e--0---0---0---4--|
 b--2---9---x---x--|
 e--0---0---5---4--|

"Something's different..."
 e---0-----0----    --0----0--|
 b---0-----0----    --0----0--|
f#--12p10-10---- x2 -10---10--|
 e--11----11----    -12---12--|
 b---9----12p9--    --9----9--|
 e---0-----0----    --0----0--|

Ending
On Any Given Thursday, John just plays Guitar 2.
Both of these can be played on this part.
The studio version sounds like both is playing

"Friends..Check..Money..Check..."

Guitar 1:
 e-----------------|
 b--0---0---5---7--|
f#--9---9---5---7--| x repeat as necessary
 e--0---0---5---7--|
 b--9---x---x---x--|
 e--0---9---5---7--|

Guitar 2:
 e---0-----0----    --0----0--|
 b---0-----0----    --0----0--|
f#--12p10-10---- x2 -10---10--|
 e--11----11----    -12---12--|
 b---9----12p9--    --9----9--|
 e---0-----0----    --0----0--|


-Lenny/Man On The Side-
Standard Tuning
Intro

e--------------------------------------|
b--------------------------------------|
g---------9h11~------------------------|
d-----9-9-9------9---------------------|
a-----11-------11-11-9\7-9~-11\9p7-9~--|
e-0~0~------------------9--9-----------|

e--------------------------------------|
b----------------------9h12-9----------|
g-------9h11~----------------11-9h11-9-|
d---9-9-9------9-----------------------|
a---11-------11-11\9p7-----------------|
e-0~-----------------------------------|

e------b12-----------------------------|
b------b12-9------9--------5~-----5----|
g-h11-9-----11-9---11-9----6~-6--6-----|
d---------------11-----11--7~7--6------|
a------------------------0~----7----0--|
e----------------------------------5---|

e--------------------------------------|
b-------------------------12-9--9------|
g---------2p1-2p4-------------11-11p9--|
d----------------0h2-0-----------------|
a-0-0-----------------2p0--------------|
e----5p4p0---------------0-------------|

e--------------------------------------|
b--------------------------------------|
g-----------------11-14\9~-------------|
d-11p9------------11------11-----------|
a-----11p9------------------11-7-11p9--|
e---------11p9~10~---------------------|

e--------------------------------------|
b------9--------12---10p9--------------|
g-------11p9----11---11--11p9--9-------|
d-----------11---------------11-11p9---|
a-9\7h9-----------------------------12-|
e-------------9~--10~------------------|

e------------------------------9h12p9--|
b-12-9--9----------------------10------|
g-----11-11p9--------------------------|
d------------11p9----------------------|
a----------------11p9------------------|
e--------------------12p9-7p9\5--------|

e-------9------------------------------|
b-12-10~-12---------------8h10p11p10p8-|
g----------11p9--7~9h11p9~-------------|
d----0~--------11----------------------|
a--------------------------------------|
e----------------8~--------------------|

e--------------------------------------|
b-h10p8--------------------------------|
g------10p9----------------------------|
d----------9h12------------------------|
a--------------12-12p10-10\7-7----10---|
e-----------------------------10p0-----|

e--------------------------------------|
b--------------------------------------|
g--------------------------------------|
d--------------------------------------|
a-10-12/14-12p10----------12h14-12h14\-|
e---------------12p10h12p0-------------|

at "3p0" and so on that is when the
super-duper-fast-finger-part is played

e--------------------------------------|
b-----------------2--------------------|
g-----------------2-0---0--------------|
d--------------------4-2-2-2p0---------|
a-12p10-----------------------2p0------|
e------10h12p0-3p0---------------4-3-2-|

e--------3-----------------------------|
b----2\0-3-2-2-------------2p0p2-------|
g----2\1---2-2-------------2p0p2-------|
d-------------2-2-2-0-2----------------|
a--------------2-------4\2------0p2p0--|
e-1-0---t-t-----------------0----------|

e---------------------------------------|
b---------------------------------2-0---|
g--------2p0------0-0-0-----------2-0h1-|
d-----------2p0-2------2----------------|
a-0------------4-4------4p0-0-0---------|
e--3-3p2p--------------------3-3p0------|

e---------------------------------------|
b--2p0p2---------------2p0-2p0----------|
g--2p0p2---------------2p0-2p0-0-0------|
d-------0p2p0p2-2p0---------------------|
a------------------0-0------------0-0---|
e-t-----------------3-0--------------3\-|

e------3-------------------------------|
b------3-------------------------------|
g---------------------2-2-2-2-2-2-2--2-|
d-------0h2-2-2-------2-2-2-2-2-2-2--2-|
a--------------4-4-4-4---4---4---4--3--|
e-2\1p0--------------------------------|

e--------------------------------------|
b--------------------------------------|
g--2-2-2-2-2-2-2-2-2-2-2-2-2-2-2-------|
d--2-2-2-2-2-2-2-2-2-2-2-2-2-2-2-------|
a---3---3---3---2---2---2---2----------|
e--------------------------------------|

e--------------------------------9~7----|
b-----------------------b5~---4--9~-9~~-|
g--2-2-2-2-2-2-2-2------b6~--6---8~-----|
d--2-2-2-2-2-2-2-2(x2)--b7~-7----6~-----|
a-1---1---1---1-------0~---------7~-----|
e--------------------0~---7~---0~-------|

e--------------------------12--9~7------|
b-p7-----5~----------------12--9~-9-----|~p7
g---9----6~--------11p9--------8~-------|
d--------7~------------9-------6~-------|
a----0~0~--------11-----11-----7~-------|
e----------0h7/12---------0~-0~---------|

e--------------------------------------|
b------5~--5---6---7-------------------|
g-9----6~---6---7--8-8-----------------|
d------7~-4---5---6-----------13p11p9--|
a--0~0~---------------11---------------|
e--------5---6---7------5~5~5~---------|

e--------------------------------10----|
b--------------------------------12h10-|
g--------------------------------------|
d-11-13h14p13p11\9---------------------|
a-----------------11-------------------|
e-------------------12-10p9-10-10------|

e-----------9-----9-----9------7-5-3-3-|
b------------9-----9-----9-----------x-|
g-11p9-----9--9--9--9--9--9---7-5-4--4-|
d-----12-0~----0~----0~--------------5-|
a--------------------------------------|
e--------------------------3-3---------|

e-3-3-----------------------------------|
b-x-x----6~~~~~-------------5~----------|
g-4-4----------7------------6~----------|
d-5-5-----------10p8h10p8p7-7~----------|
a---------------------------------------|
e----5/6~------------------0--0h9/12/14-|

e---12~~~-------------------------------|
b---12~~~-----------------5~------------|
g-------------------------6~------------|
d-------------------------7~11p9--------|
a-------------------------------9h11-11-|
e-0~-----5-7-9-12-14-12-5~--------------|

e---0-0-------------------------12p9----|
b---0-0-----------------------------12--|p
g------------------------11-11p9--------|
d-----------------9--9p11---------------|
a-p9---------------11-------------------|
e------12p9-9p12-0----------------------|

e---------------------------------------|
b-9------9p12-------------------9-------|
g--11p9------11p9--11~--9--------9-11p9-|
d------11--------11------11p9p11--------|
a---------------------0-----------------|
e----------------------t----------------|

e---------------------9-----------------|
b-----11/13------14----12-9---------14--|
g------------------13-------------------|
d--------------------------11p9----9----|
a-9p11-----11p9----------------9p11-----|
e--------------12----t------------------|

e---19\17---19\17-----------------------|
b-17------11-----14-12~~~9------9-------|
g---------11-------------11-9h11-11-11--|h
d--------0------------------------------|
a---------------------------------------|
e---------------------------------------|

e------12~------------------------------|
b---12~---------------------------------|
g-9------12-12p9--------------12--------|
d---------------12p9------------12p9----|
a-------------------12-12p10--------11--|p
e--0------------------------13----------|

e--------------10-----------------------|
b---8h10-10p11---12p10-10---------------|
g-------------9-------9--12--12---11h13-|
d--------------------------12-----------|
a-12------------------------------------|
e------------------------------0-t------|

e--------------------------------------|
b--------------------------------------|
g--------------------------9h11-11p9---|
d-13p11-----------------------------11-|
a------14-14p11------------------------|
e--------------12h13-11-11-------------|

e---------------------------------------|
b-10~----------------------8~~5~5-5-5-5-|
g-9~-(x4)------9-7h9-9p7---9~~4~4-4-4-4-|
d-------------9---------9--7~~6~7-0-0-4-|
a-----------------------------------7-4-|
e-------0h8\7~-----------7~---0~--------|

e--------------------------------------|
b----5-5-4~----5-4--5-5-5-5-5-5--------|
g----6-4-4~-4--6-4--6-4-4-4-4-4--------|
d----4-4-4~--4-6-4--4-4-7-6-4-4--------|
a-4-4--4-6~----4-4--4-4-4-4-4-7--------|
e--------7~7---------------------------|

Verse 1 & 2

"Six numbers..."
"One of the many..."
e----------------------------------|
b-5~--5---5------5---5---5----5----|
g-4~--4---4------4---4---4h6--4----|
d-6~--4h6-4------7---7---7----7----|
a------------7p4(4)--4--------4----|
e(0)-------------------------------|
Emphasise lower notes

e--------------------------------------|
b-4-----4h5-(4)-----5---5-----5---5----|
g-4-----4---(4)-----4h6-4-----4---4----|
d-4-----4h6-(4)-----7---7--7--4h6-4----|
a----------------0-------------------7-|
e-7--7---------------------------------|

PreChorus

"Excuse me Mrs. Busybody..."
e--------------------------------------|
b-2---9---7-------------4--5--2--------|
g-2---9---8---1---2--4--4--4--2--------|
d-2---7---7---2---2--4--2--2--2--------|
a-x---x---x---2---x--x--------x--------|
e-2---7---7---0---2--4--------2--------|

e------------------------------|
b-9-9-9---2--4-5--4-5----------|
g-9-9-9---3--4-4--4-4----------|
d-7-7-9---2--2-2--4-4----------|
a-x-x-x---x--0-0--2-2----------|
e-7/8/9---2--------------------|

Chorus

"I am the man..."
e----------0------|
b----2--2--0------|
g-1--2--2--4------|
d-2--2--2--4------| (x2)
a-2--x--0--2------|
e-0--2------------|
           ^this part is fingerpicked


e-------------------------|
b-----2--4--2--3--2-------|
g-1---2--4--2--2--2--1----|
d-2---2--4--2--0--2--2----|
a-2---x--x--0-----4--2----|
e-0---2--4-----------0----|

Pre Chorus (Second Time)

"Excuse me Mrs. Busybody..."
e-------------|
b-2--9-7------|
g-2--9-8------|
d-2--7-7------| (x2)
a-x--x-x------|
e-2-(7)7------|

e-----------------------------|
b-2--9-9-9--2--4-5--4-5-------|
g-2--9-9-9--3--4-4--4-4-------|
d-2--7-7-9--2--2-2--4-4-------|
a-x--x-x-x--x----0--2-2-------|
e-2--7/8/9--2-----------------|
Play chorus again but play (xx032x) more then once

Bridge

"I fell in love..."
e--------------------7------7----5---|
b-3---/5-----2---4---5-----5-----5---|
g-5---/7--1--2---4---5----5------5---|
d-5---/7--2--2---4-------------------|
a-3---/5--2--x---x-------------------|
e---------0--2---4-------------------|

"Taking my own..."
e----------------------------------|
b--3---5-----------3--3------------|
g--5---7----4---4--2--2--1---------|
d--5---7----2---2--0--0--2---------|
a--3---5----0---x--x--x--2---------|
e---------------4--3--2--0---------|

Pre Chorus (Third Time)

"Excuse me Mrs. Busybody..."
e------------------7-----|
b-2---9\----2---9--x-----|
g-2---9\----2---9--8-----|
d-2---7\----2---7--7-----|
a-x---x\----x---x--x-----|
e-2---7\----2---7--7-----|

e----------------------3-------|
b-2--9-9-9--2--4-5--3--3-------|
g-2--9-9-9--3--4-4--5--5-------|
d-2--7-7-9--2--2-2--5--0-------|
a-x--x-x-x--x-------3----------|
e-2--7/8/9--2------------------|


-Message In A Bottle-
Standard Tuning
Intro/Verse
He does various rhythyms with this
and occassionaly plays it differently.

"Just cast away..."
e-------------------------|
b-------------------------|
g-----8------4----6-------|
d-----6------2----4----6--|
a----(4)---0----2------4--|
e--0-----------------2----|

Pre Chorus

"I send an S.O.S..."
e-------------|
b--2---3---0--|
g--2---2---1--| x2
d--2---0---4--|
a--0-------2--|
e-------------|


"I hope that someone gets my..."
e---------|
b--0---3--|
g--2---2--| x3
d--2---0--|
a---------|
e--2------|

Chorus
Again, he does various things here

"Message in a bottle..."
e-----------------------|
b--(4h)5-----------(0)--|
g----4-----4--------4---| x5
d----6-----2--------2---|
a-0--4---0--------------|
e------------(0)--4-----|


Picks around with this chord
e--0--|
b--2--|
g--3--|
d--2--|
a--x--|
e--2--|

Ending

e--------------2--|
b--4---2---2---2--|
g--8---4---6---2--|
d--6---2---4---6--|
a--4---0---2---4--|
e--------------2--|


-Love Song For No One-
Standard Tuning
Capo 2

Intro

e---3---3---3---3--|
b---3---1---3---3--|
g---0---0---0---0--|
d---0---2---0---2--|
a---x---0---2---3--|
e---3--------------|

Verse

"Staying home alone..." / "Searching all my days..."
e---3-----------3-----------3---8--8--|
b---3-----------3-----------1---6--5--|
g---0---4---4---0---4---4---0---x--x--|
d---0---2---4---0---2---4---3---7--7--|
a---x---x---x---x---x---x---x---x--x--|
e---3---3---3---3---3---3---1---8--8--|


Chorus

"I'm so tired of being alone..."
e---3---7---0---3--|
b---3---8---8---3--|
g---0---7---0---0--|
d---0---7---x---2--|
a-------9---7---3--|
e---3---7---0------|


"Get here"

e---3---3---3---3------------------------|
b---3---1---3---3------------------------|
g---0---0---0---0------------------------|
d---0---2---0---2------------------------|
a---x-------2---3------------------------|
e---3------------------------------------|


Bridge

"I could have met you..."
e--3---3---3--|
b--1---1---1--|
g--0---0---0--|
d--2---0---0--|
a--0---2---3--|
e-------------|

"I could have passed you..."
e--3---3---3--|
b--1---1---0--|
g--0---0---0--|
d--2---0---0--|
a--0---2---2--|
e----------0--|

"Could I have missed my chance..."
e--3---3---3---3---3---0--|
b--1---1---1---1---1---1--|
g--0---0---0---0---0---0--|
d--2---0---0---0---0---3--|
a--0---2---3---3---2---3--|
e----------------------1--|


This is play towards the end of the song after
"...Could I have mised my chance..."

e--3---3---3---3--|
b--3---3---3---3--|
g--0---0---0---0--| x2
d--0---2---0---2--|
a--x---0---2---3--|
e--3--------------|


Ending

"You'll be so good..."
e---3---7---0---3--|
b---3---8---8---3--|
g---0---7---0---0--| x2
d---0---7---x---2--|
a-------9---7---3--|
e---3---7---0------|

e--3-2-3---2-3---2-3---2-3--    ----2-3-3--2--3--|
b--3-----3-----3-----3---3--    --3-----3-----3--|
g--0---------------------0-- x3 --------0-----0--|
d--0---------------------0--    --------0-----0--|
a--x---------------------x--    --------x-----x--|
e--3---------------------3--    --------3-----3--|

-Why Georgia-
Standard Tuning


Concert Intro
John starts off picking Part A, then strums Part B,
and goes back to Part A. Occassionaly he will
do variations of of these 3 chords.

Part A
e---------------|
b---8---10---3--|
g---9---11---4--|
d--10---12---5--|
a---------------|
e---8---10---3--|


Part B
e---------------|
b--3----8---10--|
g--4----9---11--|
d--5---10---12--|
a---------------|
e--3----8---10--|
Concert intro submitted by Taylor1701

Intro

e--------------------------|
b----3----3----------------|
g----0h2--0------0------0--| x4
d--------------4------4----|
a-----------0--5----5------|
e--3-----------------------|

Verse
On the verse the second time, John strums through
this instead of picking. On the last verse, he
picks the first part and strums the second part.

"I am driving up..." / "I rent a room"
"Everybody is just a stranger..."
Part 1:
e--------------------------|
b----3----3----------------|
g----0h2--0------0------0--| x4
d--------------4------4----|
a-----------0--5----5------|
e--3-----------------------|

Part 2:
This is the basic riff
In concert, he plays variations of it
e------------------------------|
b----3---3-------3-----3---4---|
g----4---2-------2-----2---2h4-| x2
d----2---2h5p2---2h5---2---2---|
a--3---3-------3-----3---3-----|
e------------------------------|

Part 3:
e--------------------------|
b----3----3----------------|
g----0h2--0------0------0--| x2
d--------------4------4----|
a-----------0--5----5------|
e--3-----------------------|

Pre Chorus

"Cause I wonder sometimes..."
e--0---0---3---0--|
b--3---3---0---3--|
g--0---2---0---0--|
d--2---0---0---2--|
a--2---x---X---3--|
e--0---2---3------|


"of a still verdictless life"
e--0---0-------0--|
b--3---3---3---3--|
g--0---2---0---2--|
d--2---0---0---2--|
a--2---x---x---0--|
e--0---2---3------|

Chorus

"Am I living it right..."
e----------2------------------------2--|
b--3---3---3---3---3---3----3---3---3--|
g--2---2---0---2---2---0----2---2---0--|
d--0---2---0---0---2---2----0---2---0--|
a------0---x-------0---2--------0---x--|
e----------3-----------0------------3--|


"why, why Georgia why"
e--X---X---X---0--|
b--1---1---1---1--|
g--2---0---2---0--|
d--3---3---3---2--|
a--X---X---X---3--|
e--1---1---1------|


This part is played right before
"So what, so I've got a smile on"

e--3---x---3--|
b--3---3---3--|
g--0---0---0--|
d--0---4---0--|
a--x---X---X--|
e--3---3---3--|

Bridge

"So what, so I've got a smile on"
e-----------------|
b-----------------|
g------5---7---5--| x2
d--5---3---5---3--|
a--3---1---3---1--|
e--1--------------|


"Don't believe me..."
e--3---3---5---3--|
b--3---3---3---3--|
g--0---0---0---0--| x2
d--0---x---4---x--|
a--x---3---5---3--|
e--3--------------|


"When I say I've got it down"
e--7---5---x---x--|
b--8---5---3---1--|
g--7---7---3---0--|
d--9---7---1---3--|
a--7---5---3---x--|
e--------------1--|

Interlude
Right before the 3rd verse, he does this
which is similar to the concert intro

e---------------|
b---8---10---3--|
g---9---11---4--| x8
d--10---12---5--|
a---------------|
e---8---10---3--|

This is played with a different rhythym
than the one above
e--------------    -----|
b---8---3---0--    --3--|
g---9---4---5-- x3 --4--|
d--10---5---7--    --5--|
a--------------    -----|
e---8---3---5--    --3--|

Pre Chorus 2

"Everything happens for a reason..."
e--0---2---3---0--|
b--3---3---3---3--|
g--0---2---0---2--|
d--2---0---0---2--|
a--2---x---x---0--|
e--0---2---3------|

-Your Body is a Wonderland-
drop D tuning


Intro/Verse
The intro and verse are the same in the album.
Depending on which version you hear, John may
add alterations to this riff in the intro.

"We've got the afternoon..."
e--------------------------------------|
b--------------------------------------|
g---10-10-----10-10----10-10-----10-10-|
d---10-10-----10-10----10-10-----10-10-|
a-8------------------------------------|
d----------10--------8--------10-------|

Pre-Chorus

"Cuz if you want love..."
e--------------------------------------|
b---10-8-----8--10-----10-8------8--10-|
g---10-10----10-10-----10-10-----10-10-|
d---8--8-----8--8------8--8------8--8--|
a--------------------------------------|
d-8--------8--------10--------10-------|

"This is bound to by a while"
e----------------------|
b---3----5----6-----8--|
g---3----5----7-----9--|
d---5----7----8-----10-|
a----------------------|
d-5----7----8----10----|

Chorus
John holds 3 notes with his pinky. Not an easy task :-D

"Your body is a wonderland..."
e--------------------------------------|
b--------------------------------------|
g---10-10-----10-10----10-10-----10-10-|
d---10-10-----10-10----10-10-----10-10-|
a-8------------------------------------|
d----------10--------8--------10-------|

Riff before solo
Play these 2 chords, stay on the 2nd chord and pick the rest
In concert, John does a little jam with these chords, so
he does some various rhythyms with it, but these are the
chords he plays.

"Damn baby..."
e--------0---   --------        --------|
b-6------8---   ------8-        ----8---|
g-7------9---   ----9---etc. or ------9-|etc.
d-10-----12--   -12-----        -12-----|
a-----0--10--   --------        --------|
d-0----------   --------        --------|

Solo (Concert Solo)
*=Picks multiple times
T=Thumb slap

e------13-----13--13--12--10--12--|
b------15-----15--15--13--10--13--|
g------14-----14--14--12--10--12--|
d---------------------------------|
a---------------------------------|
d--0-------0----------------------|
       *   T  *   *   *   *   *


e--13--12--10-----10----------|
b--15--13--10--8--10--13--12--|
g--14--12--10--9--10--12--12--|
d---------------------10--10--|
a-----------------------------|
d-----------------------------|
   *   *   *   *          *


e--13--12--10------|
b--15--13--10--13--|
g--14--12--10--12--| x2
d--------------10--|
a------------------|
d------------------|
   *   *   *   *


e--13--12--10--12--13-------|
b--15--13--10--13--15-------|
g--14--12--10--12--14--12\--|
d---------------------------|
a---------------------------|
d---------------------------|
   *   *   *   *   *


Then to the album solo

e-12-------------------------|
b-------13-/10-8-6-6/8-10/8--|
g-12-------------------------|
d-------14-/10-9-7-7/9-10/9--|
a----------------------------|
d----------------------------|

e-12-------------10---------0---10-0----------------|
b-------13-/10-------12----10-0------0---12--0---0--|
g-12-------------10-----------0------0-------0------|
d-------14-/10-------12--12--------------------0----|
a---------------------------------------------------|
d---------------------------------------------------|

e-12--------------------------|
b------13-/10-8-6-6/8-10/8-6--|
g-12--------------------------|
d------14-/10-9-7-7/9-10/9-7--|
a-----------------------------|
d-----------------------------|

e-12-------------15-12--12-12-----|
b-------13-10---------------------|etc
g-12-------------16-12-12-12------|
d-------14-10---------------------|
a---------------------------------|
d---------------------------------|

After the solo, he'll play this multiple times.
Play Part A followed by Part B, then repeat as necessary.

Part A:      Part B:
e---------    ------------|
b-----12--    -----12-12--|
g-----10-- x3 -----10-10--| x1
d-0-0-----    -0 0--------|
a---------    ------------|
d---------    ------------|

Ending

"Da da dah..."
e--------------------------------------|
b--------------------------------------|
g---10-10-----10-10----10-10-----10-10-|
d---10-10-----10-10----10-10-----10-10-|
a-8------------------------------------|
d----------10--------8--------10-------|

-My Stupid Mouth-
Standard Tuning
*The strumming can be a little tricky. Just listen to the song a few times and you 
be able to pick up on it.*

Intro

----------------------------|
--3---2---3---3---3---2---3-|
--2---2---2---2---2---2---2-|
--0---x---0---0---0---0---0-|
------4---x---x---2---x---x-|
----------2---3-------2---3-|


Verse

"My stupid mouth has got..."
"We bit our lips..."
"One more thing..."
-----------------------------------------|
--3--2--3--3--3--2--3--3--2--3--3---2--3-|
--2--2--2--2--2--2--2--2--2--2--2---2--2-|
--0--x--0--0--0--0--0--0--0--0--0---0--0-|
-----4--x--x--2--x--x--2--x-----2---x--x-|
--------2--3-----2--3-----2--3------2--3-|

Bridge

"Oh, another social casualty..."
"Oh, the way she feels..."
--2----------------------------------------------|
--3--5--5--7------------3---3---3-----3--3--1--8-|
--0--6--7--7--12--11----0---2---0-----0--2--0--7-|
--0--4--7--7--10--10----0---0---2-----0--0--3--9-|
--x--x--x--x---x---x----x---x---2-----x--x--x--x-|
--3--6--7--7--10--10----3---2---0-----3--2--1--7-|


Chorus

"I'm never speaking up again..."
--------------------2------------------2-|
--3--2--3--3--3--2--3--3--2--3--3---2--3-|
--2--2--2--2--2--2--0--2--2--2--2---2--0-|
--0--x--0--0--0--0--0--0--0--0--0---0--0-|
-----4--x--x--2--x--x--2--x-----2---x--x-|
--------2--3-----2--3-----2--3------2--3-|


"Oh I'm never speaking..."
--5---|
--3---|
--3---|
--3---|
--x---
--3---


"Starting now..."
-----------------------------5-|
--3---2---3---3---3---2---3--3-|
--2---2---2---2---2---2---2--3-|
--0---x---0---0---0---0---0--5-|
------4---x---x---2---x---x--3-|
----------2---3-------2---3--3-|


Interlude


"Owwh,owwh,owwh,owwh..."
e-------x------0----0----0-------------|
b-8~--8~x------10---10---8----7-----7--|
g-7~--7~x------9----9----7-----9-7p9---|
d-8~8-8~x------12---11---9-----9-9-----|
a-8~--8~x------0----0----0-------------|
e-------x-10-10--9-9--8-8-7-7----------|

e-----
b-10--
g-----
d-----(x2)
a-----
e-----

Note: For the third time thru you strum the chords but now you
include for example,the 10,10 on the low-e, underneath the chord in
the whole strumming  pattern as opposed to how it was played the
first two times.


Chorus last time through

--------------------2--------------------2-|
--3--2--3--3--3--2--3--3--3--3--3--3--2--3-|
--2--2--2--2--2--2--0--0--2--0--2--2--2--0-|
--0--x--0--0--0--0--0--2--0--0--2--0--0--0-|
-----4--x--x--2--x--x--2--x--x--0--2--x--x-|
--------2--3-----2--3--0--2--3--------2--3-|


Ending

"Starting now..."
----------------------------------|
--3---2---3---3---3---2---3--3----|
--2---2---2---2---2---2---2--2----|
--0---x---0---0---0---0---0----0--|
------4---x---x---2---x---x-------|
----------2---3-------2---3-------|

-Covered In Rain-
Drop D

This is the whole song.

e---------------|
b--3---10---11--|
g--0----x----x--|
d--3---10---10--|
a--1----8----8--|
d--1----8----8--|


John does a lot of improv and solos in this version,
so I suggest you learn some theory and play your own
solos.


Solo


e---------------------------------------|
b---------------------------------------|
g------------------------------------12-|
d-11h12-12p10--12-12-12-10--12~-12h15---|
a------------13-----------13------------|
d---------------------------------------|

e---------------------------------------|
b---------------------------------------|
g---------------------------------------|
d-15-12--12h10-----------------------12-|
a------15-----13h15p13-13h15-15/16-16---|
d---------------------------------------|


e---------------------------------------|
b-bd13-11-------------11p10-11-----10---|
g--------12-10----------------12h10--12-|
d-------------10-10h12------------------|
a---------------------------------------|
d---------------------------------------|

e-----------------------------------bu-|
b-----8---------------------------11---|
g-10---12-10-10--------------10h12-----|
d---12---------10----------------------|
a----------------12-13--13h15----------|
d---------------------17---------------|

e-10-10-------bu10-10-------bu11-10-----|
b-----------11------------11-------11---|
g------10h12---------10h12-----------10-|
d---------------------------------------|
a---------------------------------------|
d---------------------------------------|

e-----------------------------------------|
b-11-13-13-11--11-10-----11-------11------|
g------------13-----10-10--10\\8-10--10\\-|
d-----------------------------------------|
a-----------------------------------------|
d-----------------------------------------|

e----------------------------------------|
b-----11---------------------------------|
g-8-10--10\\8----10-8-10-8---------------|
d-----------11\\8----8----8-11-8------8--|
a------------------------------8-8h10----|
d----------------------------------------|

e--------------------------------------|
b----------------------------------11--|
g----------10-10------10---------10----|
d-11-10--13-----13--11--13\\11--12-----|
a------13---------13---------13--------|
d--------------------------------------|

e---11~11~--11~11~--11~11~--11~11~--13-|
b-15------15------15------15------15---|
g--------------------------------------|
d--------------------------------------|
a--------------------------------------|
d--------------------------------------|

e-10-----------------------------------|
b---13-11~b15-15-13--------------------|
g------------------b15-b15-b15-b15-b15-|
d--------------------------------------|
a--------------------------------------|
d--------------------------------------|

e--------------------11~11~--11~11~--11--|
b-b15-16h18-15-----16------16------16----|
g-b14---------17\\15---------------------|
d----------------------------------------|
a----------------------------------------|
d----------------------------------------|

e-~11~--11~11~--11~11~--11~11~--11~11~-|
b-----16------16------16------16-------|
g--------------------------------------|
d--------------------------------------|
a--------------------------------------|
d--------------------------------------|

e--------------------------------------|
b-15-15-13------15-13--b15-------------|
g---------15~15~-----15---10-b13-------|
d-------------------------------10--10-|
a---------------------------------13---|
d--------------------------------------|

e--------------------------------------|
b--------------------------------------|
g--------------------------------------|
d---10/12-10--10--10/12-12-12-12-12-12-|
a-13--------13--13---------------------|
d--------------------------------------|

e--------------------------------------|
b---------11--3------------------------|
g---------0---0-(De La Plays)----------|
d-b12~~---10--3--------------8h10p8h10-|
a------10-x---x------------------------|
d---------8---1------------------------|

e----------------------------------------|
b----------------------------------------|
g-----------------12~--------------------|
d--------------15~---12-10h12~-10h12/15--|
a----------------------------------------|
d-10\\8-12-13-15-------------------------|

e---------------------------------------|
b---------------------------------------|
g-12-10----------------10---------------|
d------12-10h12\\10----8--12--12--8-----|
a-----------------8-10-----15--10-8-8-5-|
d---------------------------------------|

e---------------------------------------|
b---------------------------------------|
g--------5----------10----7~~-7-7-7-1-5-|
d-----5-7-5-3~~-8-10--10-8--------------|
a-~5-8----------------------------------|
d---------------------------------------|


e-----------------------------------------|
b------------------------------------10---|
g-5-5-5-5----5-7-5----------3-5-5/7\\3----|
d--------8----8---5-5------3--------------|
a---------6-8------8-5\\3\\1~-------------|
d-----------------------------------------|

e---------------------------------------|
b-h11p10--------------------------------|
g-------12/10~10~-10--------------------|
d-------------------12-10------------12-|
a------------------------13-13~-13/15---|
d---------------------------------------|

e---------------------b6---------------|
b-------------------------8------------|
g---------------10-8-7---7-7p5-5-5-----|
d-~----------0h8--------8-----8---b12~-|
a----13-13-15---------------------b12~-|
d--15----------------------------------|

e---------------------------------------|
b---------------------------------------|
g---------------------------------------|
d--7-7-5------7-------------------------|
a-8-8-8-8-8h10-10-8-----10p8~-8---------|
d------------------12-10-------10-10-10-|

e-----------------13--------------------|
b---------15-13-13--14-12---------------|
g------------------------15-17p15-15-15-|
d---------------------------------------|
a---8----8------------------------------|
d-12-12~~-------------------------------|


e-------------------------------13-------|
b-----18\\16--15------------13h15--15-13-|
g----------17--15-------12~--------------|
d-15-------------15-13-------------------|
a---17----------------17-----------------|
d---20-----------------------------------|

e----13-----------13~--------13---------|
b-h15--15-15-15-15---15-15-15--15p13-15-|
g---------------------------------------|
d---------------------------------------|
a---------------------------------------|
d---------------------------------------|

e----13--17/18\\16-17h18-17h20-18p17--18-|
b-p13--15--------------------------18----|
g----------------------------------------|
d----------------------------------------|
a----------------------------------------|
d----------------------------------------|

note:skip about 6 secs.

e--------------------------------------|
b---------13-----------13-----------13-|
g-15-15-15--15-15-15-15--15-15-15-15---|
d--------------------------------------|
a--------------------------------------|
d--------------------------------------|

e---------------------------------------|
b------------13-13--------13-13---------|
g-15-15-15-15-----15-15-15-----15-15-15-|
d---------------------------------------|
a---------------------------------------|
d---------------------------------------|


e-13-13---------------------------------|
b-----------13-13-----------------------|
g------15-15-----15-12-13-12------------|
d-------------------13-15-13--10--------|
a---------------------------13--13------|
d---------------------------------15h17-|

note:"13"x10 is only for that one note

e--------------------------------------|
b--------------------------------------|
g--------------------------------------|
d------10------------------------------|
a-13-13--13(x10)-15p13(x10)------------|
d--------------------------------------|

Also note that they start playing the solo faster and now I
really,really, just realized being bored is more conducive to my
brain not exceeding its 300k. So for the rest of the solo, which
should be about 20-30secs ,give or take, just go crazy-metal/blues-
guitarist and you should have the rest it all comes from the soul.

-83-
standard tuning

Concert Intro


1st Part:

e--------------------------------------|
b----5---5------2-5-0---5---5----------|
g----6-4-4-(x5)---4-4---6-4-4----------|
d--0-4-2-2--------------4-2-2----------|
a-5---0-0------------0-5-0-0-----------|
e--------------------------------------|

e--------------------------------------|
b-2-5-0--------------------------------|
g---4-4---6--4--4-4~-------------------|
d---------4--2--2-2~-------------------|
a--------5--0--0-----------------------|
e--------------------------------------|

2nd Part

"And these day,eh,eh,eh..."
e----------|
b--5--3-2--|
g--4--4-4--|
d-0--0-----|
a----------|
e----------|

Chords going into intro:

e-----------|
b--5---2----|
g--4---4----|
d-0--0------|
a------0----|
e-----------|


Intro & Verse

"I've these dreams I'm walking..."
"Thinking about my brother Ben..."
e----4----4---0---0---0--------------------0------0----|
b----2----2---5---5---5---3---3---2---0----0-0----0----|
g----4----4---4---4---4---0---0---0---0------0------2--|
d-------------------------4---4---4---4------4------2--|
a--0---0------0-------0--------------------------------|
e-------------------------0-------0---0--0---0--0------|


Pre Chorus

"And these days, I wish I was six again..."
e------------4------4-------4-----|
b----5--5----2--4---2---2---2--2--|
g----6--6----4--2---4---4---4--4--| x4
d----4----------------------------|
a--5-------0------0-------0-------|
e---------------------------------|


Chorus
The chorus lyrics start in the pre chorus tab
and goes into this.  Listen to it a few times and
you'll see what I'm talking about.

"...my life was more like 1983..."
e-----0----0-----5---3---3--|
b-----0----0-----0---0---0--|
g-----5----5-----5---5---5--|
d-----5----5-----4---0------|
a-----x-------/5------------|
e--/5-5--5------------------|


Bridge

"And most my memories have escaped me..."
e--4---7---4-------4-------4------|
b--5---5---5---2---2---2---2---2--|
g--4---4---4---3---4---3---4---3--| x2
d--6---6---6---2---2---2---2---2--|
a--4---4---4----------------------|
e--------------2---2---2---2---2--|

"If heaven's all we want..."
e--7----7---0---0---|
b--7---10---2---0---|
g--8----8---1---1---|
d--9----7---0---0---|
a--9----9---2---2---|
e--7----7---0---0---|

e----------4---5---7--9--12--|
b--3---5---2---2-------------|
g--4---6---4---4---7--9--12--|
d--2---4---2---2-------------|
a--3---5---0---0-------------|
e----------------------------|


Solo
Keyboard plays lead solo
Guitar plays this to the end of the song
I hear this riff differently than I see it live
So if anyone has a correct version, let me know
Here are 3 different versions of this riff. You decide!

On the Any Given Day concert, John appears to be playing

e----------|
b--12--12--|
g--12--11--| repeat as necessary
d--10--10--|
a--12---x--|
e------10--|

The electric guitar guy appears to be playing this

e--5(h7)-----|
b--5------5--|
g--5------5--| repeat as necessary
d--5------4--|
a---------5--|
e------------|
The (7) is a hammer-on on but alternates between 5 and 7


This is what I'm hearing on the RFS album

e---6/7--7-7---4/5--5-5--|
b---7/8--8-8---4/5--5-7--|
g---8/9--9-9---6/7--7-7--| repeat as necessary
d------------------------|
a------------------------|
e------------------------|

-Comfortable-
Standard Tuning
Capo 3

Intro

e--0h2-----2p0----0-2-3-2------2-2-2p0-----0-2-3-|
b--3-----------3--3------------3-3-3---3---1-----|
g--2-----2--------0----------0-------------0-----|
d--0---0----------x------------------------2-----|
a-----------------1--------2---------------0-----|
e------------------------------------------------|

e--2p0-----------------------------------------|
b--1---3-------0------2------3------0----2---3-|
g--2-----------0------2------4-----0-----2---4-|
d--0-------0---0---0--2---2--4----0---0--2---4-|
a----------------------------------------------|
e--------3---3---3------3--------0-------------|


Verse
Finger pick the chords

e--2--0--2--0--2--------------------------|
b--3--3--3--1--1-------0------2------3----|
g--2--0--0--0--2-------0------2------4----|
d--0--2--0--2--0---0---0---0--2---2--4--0-|
a-----1--2--0-----------------------------|
e----------------3---3---3------3------0--|

e-----------------|
b---0-----2-----3-|
g---0-----2-----4-|
d---0---0-2---2-4-|
a-----------------|
e-0---0-----0-----|


*** Very often, he only plays:

e-----------------|
b-------0---2---3-|
g-------0---2---4-|
d---0---0---2---4-|
a-----------------|
e-0---0-----------|

On the album, at 1:00 min

e----2p0---------2p0--------2p0---------2-----|
b----3---------------3------3-----------1-----|
g--------2--------------0-------0-----2---2---|
d--0---------2------------------------------0-|
a----------1---1-------2--2-------3-3---------|
e---------------------------------------------|


Part 2

"I can't remember..." / "Life of the party..."
e--------3----------0--------------------------2-|
b--------3-----2------2------------------3--5----|
g--------0-------0------0---(x3)-------4---------|
d----0-----0-------2-----------------4-----------|
a------2-----2-0---------------------------------|
e--3-------------------------------4-------------|


Chorus
Finger pick these chords

"Our love was comfortable..."
e--2--0--2---2--0--2---3---0---0--|
b--3--3--3---3--3--3---3---3---2--|
g--2--2--2---2--2--2---0---2---2--|
d--0--0--0---0--0--0---0---2---2--|
a------------2--2--2---x---0---0--|
e----------------------3----------|

* John probably used his thumb on the a string.


Part 3

"or so they say.." / "I'm not impressed.."

e--1---0---0---0---3---0--|
b--1---1---3---0---3---2--|
g--0---0---2---1---0---3--|
d--3---2---0---0---0---2--|
a----------2---2---x---x--|
e----------x---0---3---3--|


Part 4

Interlude

e--3--2--0----------3------2-------|
b--------------------------------5-|
g----------------------------------|
d----------------------------------|
a-----------------------0--1--3--5-|
e-------------0--2--3--------------|

* (x5xx5x) can be replaced by (xx0xx0).


Part 5

" I loved you... grey sweatpants..."
e----------------------------------------------------|
b--------0------2------3------0--0-----2-----3---3---|
g--------0------2------4---------0-----2-----4---4---|
d----0---0---0--2---2--4----0----0--0--2--2--4---4---|
a----------------------------------------------------|
e--3---3---3------3-------0--------0-----0-----0-----|

e---------------------------------------------------0--|
b---------0-------2-------3----------2-------3------2--|
g---------0-------2-------4----------2-------4------2--|
d----0----0----0--2----2--4----0h2---2----2--4----2----|
a----------------------------0-----0----0-------0------|
e--3---3-----3-------3---------------------------------|


Part 6

Last chorus played right before "I want you back"

e--2---0---0---0---0-|
b--3---3---3---3---2-|
g--2---2---0---2---2-|
d--0---0---2---2---2-|
a------2---2---0---0-|
e------x---0---------|


Part 7

" I want you back..."
e--0---0---3---0---------------0---|
b--3---0---3---2---3h2---------2h3-|
g--2---1---0---2-------2-------2---|
d--0---0---0---2---------2-----2---|
a--2---2---x---0-----------0---0---|
e--x---0---3---x-------------------|


Ending
Finger pick these chords

e--2p0--0--2p0--0-----2--|
b--3----3--3----3--2--3--|
g--2----0--2----0--2--2--|
d--0----2--0----2--2--0--|
a-------1-------1--------|
e------------------------|


Concert Intro
C-A-D-G-B-E

e--------------------------------------|
b--------------------------------------|
g--------------------------------------|
d------------3------------------3-5~---|
a----7------7-7~------7--------7-------|
c-0-7-10-7-0-----7-0-7-10-7-0-0--------|

note:what I mean by 9x is he plucks the twos 9 times,
then he hits two on the high e and same process for the three's

e-2----2-3---4-8-8h11p8-11-11-11-11-11-|
b--(9x)---(9x)-------------------------|
g-2------3-----------------------12----|
d--------------------------------------|
a--------------------------------------|
c--------------------------------------|

e---------------------------------------|
b------------10-10-10-10----------10-13-|
g-14-14h12-14---------10-10--10h12------|
d--------------------------10-----------|
a---------------------------------------|
c---------------------------------------|

e-------------------------11-11-11-10-8-|
b-10-------------------8----------------|
g---14-12-10-10p8---8-8-----------------|
d----------------10-8-------------------|
a---------------------------------------|
c-----------------------tt--------------|

e-----10--------------------------------|
b-------11\10--10-10-10\8---------------|
g-10----10\10--10-10-10\8-10-10-10-8~---|
d---10-------10-----------8--8--8-10----|
a------------------------------------10-|
c---------------------------------------|

e---------------------------------------|
b---------------------------------------|
g-----------------------12-12-----------|
d----------------------------13-13------|
a-13-13-13-13--13-13/15-15-15-----13/15-|
c---------------------------------------|

e--------------------------11-11-11-----|
b----------------------------------13---|
g-12-12-12--12------12-12--12-12-12--12-|
d---------------------------------------|
a-15-15---15--13/15-15-15---------------|
c---------------------------------------|

e-11--13-11-----------------------------|
b----------13---------------------------|
g---12--------------------12-12p10--10--|h
d--------------10--10-13----------13----|
a------------12--12-----15--------------|
c---------------------------------------|

e--------------------------------------|
b--------------------------------------|
g-12-------------------------------5-5-|
d---13-10-10-8--10-8-7--8-7-5----------|
a---------10-10-10----10-----9-8-7-----|
c--------------------------------------|

e---11-11-11-11-------------------------|
b---------------13-13-13-----------11---|
g-5-10-10-10/12-12-12-12-------------12-|
d---------------------------------------|
a-----------------------12-13-13-13-----|
c---------------------------------------|

e---------------------------------------|
b---------------------------------------|
g----------------12-12-12---------------|
d-13-13/15\13/15-13-13-13-13/15\13/15---|
a----13/15\13/15----------13/15\13/15---|
c---------------------------------------|

e--------------------------------------|
b--------------------------------------|
g--------------------------------------|
d-13-13-13-13-13-15-15-15-15-15-16-16--|
a-13-13-13-13-13-15-15-15-15-15-16-16--|
c--------------------------------------|

e--------------------------------------|
b--------------------------------------|
g----------------------17----20-19-17--|
d-16-17-17-17-18-18-18-17-22-20-19-17--|
a-16-17-17-17-18-18-18----22-----------|
c--------------------------------------|

e------|
b------|
g-14-12
d-15-13
a------|
c------|

Note: He plays this chord right here until the bass guitarists,De
La, has played the very first part of the intro for 4
measures.You\'ll hear it in the song.

Also Note: The music picks up right \'chere somewhat like an old-
southern baptist theme right here, guitarists at my old church use to
do it all the time.This is also the only chord he plays.So the only
way to play it is with soul.

e----
b----
g----(4 measures of the bass prt)
d-13-
a-13-
c----

note:the 7&8 are like rapid-fire hammer-ons

e---------------------------------------|
b---------------------------------------|
g-5-5-8-8-10-10-15/17-7-8-7-8-7-8-7-8-7-|
d------------------18-------------------|
a---------------------------------------|
c---------------------------------------|

e--------------------------------------|
b----------(x2)-13-13h16(x5)-16-16-16--|
g-8------------------------------------|
d--13-10-10------------------15-15-15--|
a--------------------------------------|
c--------------------------------------|

e--------------------------------------|
b-18-18-18--------13-13-13-------------|
g---------15-15-15--------(x2)---------|
d-17-17-17--------13-13-13-------------|
a--------------------------------------|
c--------------------------------------|

after the second go 'round of that part where he has the melted
face on the song then goes right into the intro

the drums, and the other instruments, are also a crucial killers on
this intro.


Intro and Verses 1 and 2
Verse 3 is played slightly different with the same notes

e---------------------------------------------------|
b---8----------4-------------4----------9---------8-|
g-----10-----3-------------3---3------8---------7---|
d----------3-----5-6-----6----------8--------10-----|
a---------------------------------------------------|
c-0------3-----------5-----------8-------10---------|


Pre Chorus
Play this and go back to verse

"She comes and goes..."
e-x--x--x-|
b-6--6--4-|
g-5--5--3-|
d-8--8--6-|
a-x--x--x-|
c-8--7--6-|


Pre Chorus

"She comes and goes..."
e-------------------------|
b--6--6--4--6--6--4--6--4-|
g- 5--5--3--5--5--3--5--5-|
d--8--8--6--8--8--6--8--6-|
a--x--x--x--x--x--x--x----|
c--8--7--6--8--7--5--7----|


Chorus

"Neon..."
e---x---x---3--|
b---4---6---4--|
g---3---5---3--| x 2
d---6---8---5--|
a---x---x---3--|
c---5---7---x--|


"Who knows how long...  she can go before she burns away"
e---x---x---3----x---x-----|
b---4---6---4---11---9--4--|
g---3---5---3---10---8--5--|
d---6---8---5---10---8--6--|
a---x---x---3----x---x-----|
c---5---7---x---10---8-----|


Verse 3
Similar to verses 1 and 2 except he plays the notes together.

e-------------------------------------|
b------8-------4-4---4-4----9------8--|
g-----10-10----3-3---3-3----8------7--|
d--------12----3-3---6-6----8-----10--|
a-------------------------------------|
c---0--------3------5-----8----10-----|

Right before solo
Strum the chords the first two times,
Then pick through them the last

e-----------------------------|
b---4--6--7---9---4--6--7---9-|
g---3--5--6---8---3--5--6---8-|
d---6--8--9--11---6--8--9--11-|
a-----------------------------|
c---5--7--8--10---5--7--8--10-|

e----------------------------------------|
b--------4--------6--------7----------9--|
g------3--------5--------6----------8----|
d----6--------8--------9---------11------|
a----------------------------------------|
c--5--------7--------8--------10---------|

Solo
Not tabbed out yet, sorry :-(

**Thank you to JMTABS for helping me out on this one.
comments
print report bad tab
I want to post or [tab]
guest
You may want to rate the tab now too:
select rating
Please do not post tabs as comments. Select "correction" instead!