Oops, an error
Loading. Please wait.

Assassin Tab

ver1
ver1

Solo

Whole song

More versions @911Tabs.com
17,213 views 33 this week
3 commentsread comments
1 2 3 4 5
accurate
x 9
Autoscroll
+/-
esc
set tempo
stop
Contributor
WARNING: You are trying to view
                                    content from Ultimate-Guitar.com
                                    in an unauthorized application,
                                    which is prohibited.

                                    Please use an official Ultimate
                                    Guitar Tabs application for iPhone,
                                    iPad or Android to access legitimate
                                    chords, guitar, bass, and drum tabs
                                    from Ultimate-Guitar.com database.

                                    Type "ultimate guitar tabs" in Apple
                                    App Store's or Android Market's
                                    search to find the application.
This is my first shot at writing a tab.  I decided to tab out the solo for John Mayer's 
single "Assassin" since it's not really available in full.  The solo starts right after 
says "..im gone...".  Sounds right to me - let me know if it needs changed.  Thanks.

-Marc.

E|---------------------------------------------------------------------------|
B|-17b19vvvv-----------17b19-15b17r15-----------17b19-17b19-15(slow)b17------|
G|-16b18vvvv--16-16-14----------------16vv\----------------------------------|
D|---------------------------------------------------------------------------|
A|---------------------------------------------------------------------------|
E|---------------------------------------------------------------------------|

E|----------------------------------------------------------------------------|
B|-17b19-17-15h17p15-------15----------19b21r19-17-19-15h17p15----------15b17-|
G|-------------------16-14----16vv\----------------------------16-14-16-------|
D|----------------------------------------------------------------------------|
A|----------------------------------------------------------------------------|
E|----------------------------------------------------------------------------|

E|------7--------------------------------------------------------------------|
B|--------10b12-10-7-7---------------17b19-15b17-15b17-15---------19b21r19---|
G|-9b11----------------9-7---7vv-------------------------16-14----18b20r18---|
D|-------------------------9-----9-------------------------------------------|
A|---------------------------------------------------------------------------|
E|---------------------------------------------------------------------------|

E|-----------------------------------------------|
B|-17-19-15h17p15-17-15----------17--------------|
G|----------------------16-14-16----16vvvp14-----|
D|-------------------------------------------16\-|
A|-----------------------------------------------|
E|-----------------------------------------------|
comments
print report bad tab
3 comments total. show 1 bad comment
+1 reply
Kevy Absolution wrote on January 13 2010, 10:29 pm

What the hell are you talking about RJ_Rock? This is DEAD on.

-2 reply
bassetrox wrote on December 12 2010, 06:54 pm

AS I hear it:

second line

 
E|----------------------------------------------------------------------------|
B|-17b19-17-15h17p15----------15----------19b21r19-17-19-17h19p17------------------|
G|-------------------16----16----16vv\----------------------------19-16----16-19b-----|
D|----------------------16----------------------------------------------16----|
A|----------------------------------------------------------------------------|
E|----------------------------------------------------------------------------|


and the last line


E|-----------------------------------------------|
B|-17-19-17h19p17----17-15----------15--------------|
G|----------------19-------16-14-16----16\-----|
D|--------------------------------------------|
A|-----------------------------------------------|
E|-----------------------------------------------|


Minor changes, but I think theyre right,

I want to post or [tab]
guest
You may want to rate the tab now too:
select rating
Please do not post tabs as comments. Select "correction" instead!