Oops, an error
Loading. Please wait.

Inside Whats Out Chords

13,368 views 12 this week
2 commentsread comments
1 2 3 4 5
worth learning
x 2
Autoscroll
+/-
esc
set tempo
stop
Contributor
Difficulty
intermediate
Hey! There's an official Ultimate Guitar app which is ideal
for learning songs when you're away from computer. Get the app
WARNING: You are trying to view
                                    content from Ultimate-Guitar.com
                                    in an unauthorized application,
                                    which is prohibited.

                                    Please use an official Ultimate
                                    Guitar Tabs application for iPhone,
                                    iPad or Android to access legitimate
                                    chords, guitar, bass, and drum tabs
                                    from Ultimate-Guitar.com database.

                                    Type "ultimate guitar tabs" in Apple
                                    App Store's or Android Market's
                                    search to find the application.
1. Back to you


Back To You by John Mayer

Intro:  A-F#m-Bm-E-F#m

A
Back to you
                 F#m
It always comes around

Back to you
              Bm
I tried to forget you
                 E
I tried to stay away
             F#m
But it's too late

A
Over you
           F#m
I'm never over

Over you
           Bm
Something about you
                      E
It's just the way you move
                 F#m
The way you move me

E
Yeah
       F#m        D         E
I'm so good at forgetting
            F#m  D      E
And I quit every game I play
       F#m  C#m D
But forgive me, love
        Bm            E
I can't turn or walk away

A
Back to you
                F#m
It always come around

Back to you
                 Bm
I walk with your shadow
                   E
I'm sleeping in my bed
             F#m
With your silhouette

E
Yeah
            F#m            D         E
Should have smiled on that picture
              F#m            D      E
If that's the last that I'll see of you
         F#m   C#m  D
It's the least that you
Bm        E
Could not do

Adlib:  F-C-G

A         D
Leave the light on
E                     A
I'll never give up on you
E         A         D
Leave the light on
    F#m
For me too
    C#
For me too
    C
For me too
D
Yeah

Instrumental:  A-F#m-Bm-E-F#m

A
Back to me
               F#m
I know that it comes

Back to me
           Bm
Doesn't it scare you
                    E
Your will is not as strong
              F#m
As it used to be


2. No Such Thing


Intro

                     Emaj9
e------------------------------------------------------------------------
B--------------------7----------------7------------7---------------7-----
G--------------------8----------------8------------8---------------8-----
D--------------------6----------------6------------6---------------6-----
A--------------------7----------------7------------7---------------7-----
E---------0----0-----------0----0------------0----------0----0-----0-----

           Eadd9
e---------------
B-----7-----7---
G-----8-----9---
D-----6-----6---
A-----7-----7---
E-----0-----0---


Verse
Chords:
Amaj9:(x 0 11 13 0 0)
C#7sus4:(x 4 6 4 7 0)
Em9:(0 7 5 7 7 0)
F#7:(2 4 2 3 2 2)
Asus2:(x 0 2 4 0 0)
A6/9:(x 0 4 6 0 0)
Asus2 type 2:(x 0 7 9 0 0)
Am9:(x 0 5 5 0 0)
Fmaj7#11:(1 3 2 2 0 0)
Aadd9:(5 7 7 6 0 0)
G7:(3 5 3 4 3 3)

[Em9]"welcome to the real world"
she [F#7]said to me condescendingly
"take [C#7sus4]a seat, take your life
[Em9]plot it out in black and white"

[Emaj9]well I never lived the dreams of the prom[Amaj9] kings 
and the drama queens
I'd like to think the [C#7sus4]best of me
is still hiding [F#7]up my sleeve

Pre-Chorus

they [Asus2]love [A6/9]to [Asus2type2]tell [Amaj9]you [Asus2]"stay [A6/9]
in-[Asus2type2]side [Amaj9]the lines_____[Emaj9]"
but [F#7]something's better [Asus2]on the other side_______[Emaj9]

Chorus

[Emaj9]I want to [Am9]run through the halls of my [Emaj9]high school
I want to scream [Am9]at the top of my [Emaj9]lungs.
I just found out [Am9]there's no such thing as the [Emaj9]real world
just a lie [Am9]you've got to rise a-[Emaj9]bove

Verse

[Emaj9]so the good boys and girls take the [Amaj9]so-called right track
faded white hats grabbing cred-[C#7sus4]its, maybe transfers
they [Em9]read all the books but they can't find the answers
[Emaj9]And all of our parents, they're getting old-[Amaj9]er
I wonder if they've wished for anything [C#7sus4]better
while in their memories, tiny [F#7]tragedies

Pre-Chorus

they [Asus2]love [A6/9]to [Asus2type2]tell [Amaj9]you [Asus2]"stay
[A6/9]in-[Asus2type2]side [Amaj9the lines_____[Emaj9]"
but [F#7]something's better [Asus2]on the other side_______[Emaj9]

Chorus

[Emaj9]I want to [Am9]run through the halls of my [Emaj9]high school
I want to scream [Am9]at the top of my [Emaj9]lungs.
I just found out [Am9]there's no such thing as the [Emaj9]real world
just a lie [Am9]you've got to rise a-[Emaj9]bove

Bridge
[Fmaj7#11] [Aadd9] [Fmaj7#11]
I am invin-[Aadd]cible [Fmaj7#11]
I am invin-[Aadd]cible [Fmaj7#11]
I am invin-[Aadd]cible
as [G7]long as I'm alive

Interlude
[Asus2] [A6/9] [Asus2type2] [Amaj9] [Asus2] [A6/9] [Asus2type2]
[Amaj9] [Emaj9]
[F#7] [Asus2]

Chorus

[Emaj9]I want to [Am9]run through the halls of my [Emaj9]high school
I want to scream [Am9]at the top of my [Emaj9]lungs.
I just found out [Am9]there's no such thing as the [Emaj9]real world
just a lie [Am9]you've got to rise a-[Emaj9]bove

Verse

I just can't wait [Am9]for my ten year re-[Emaj9]union
I'm gonna bust [Am9]down the double doors[Emaj9]
and when I stand[Am9] on these tables be-[Emaj9]fore you
you will know[Am9] what all this time was [Emaj9]for


3. My Stupid Mouth


MY STUPID MOUTH - JOHN MAYER


D - D/C# - D/F# - G  - Bm  -  D/F#  - G


Verse 1:
          D         D/C# 
My stupid mouth Has got me in trouble
D/F#       G        
I said too much again
Bm     D/F#             G
  To a date over dinner yesterday
           Bm    D/F#                    
And I could see  she was offended
G
She said "well anyway..."
Bm   D/F#        G
Just dying for a subject change
G       F#sus/A#      F#/A#     Bm7 . . . D7sus4    D7       G      
Oh, a - nother social casualty            Score one more for me
G         D/F#      Em7                      D/F#
How could I forget?  Mama said "think before speaking"
G         D/F#            F2
No filter in my head  Oh, what's a boy to do
  G2/B                      D - D/C# - D/F# - G - Bm - D/F# - G
I guess he better find one soon



Verse 2:
           D        D/C#                  D/F#                  G
We bit our lips she looked out the window rolling tiny balls of napkin paper
Bm          D/F#                         G        
 I played a quick game of chess with the salt and pepper shak - er
Bm     D/F#               G                      Bm
 And I could see clearly   an indelible line was drawn
Bm      D/F#                G
Between what was good, what just slipped out and what went wrong
G       F#sus/A#       F#/A# 
Oh, the way she feels about me has changed
Bm7 . . . D7sus4              D7     G
          Thanks for playing, try a -gain.
G         D/F#      Em7                       D/F#
How could I forget?   Mama said "think before speaking"
G         D/F#            F2       
No filter in my head  Oh, what's a boy to do
  G2/B                      
I guess he better find one

 

Chorus:
D     D/C#    D/F#     G      Bm 
 I'm  never   speaking up a - gain
    D/F#   G
It  only   hurts me
Bm   D/F#   G            Bm
I'd  rather be a myste - ry
     D/F#     G
Than she de - sert me
Bb - - -
Oh I'm never speaking up again
         D - D/C# - D/F# - G - Bm - D/F# - Gm/Bb . . .
Starting now



Verse 3:
         D      D/C#         D/F#         
One more thing  why is it my fault?
           G       Bm
So maybe I try too hard
         D/F#          G
But it's all because of this desire
                Bm             D/F#          G
I just wanna be liked, I just wanna be fun - ny
                            Bm     D/F#            G
Looks like the jokes on me,   so   call me captain backfire
G       F#sus/A#      F#/A#     Bm7 . . . D7sus4    D7       G      
Oh, a - nother social casualty            Score one more for me
G         D/F#      Em7                      D/F#
How could I forget?  Mama said "think before speaking"
G         D/F#            F2
No filter in my head  Oh, what's a boy to do
  G2/B                     D - D/C# - D/F# - G - Bm - D/F# - G
I guess he better find one soon


4. Neon


Intro & Verses

e---------------------------------------------------------------|
b--------8-------------4----------------4-----------9-------8---|
g-----x----10--------3----------------3---3--------8-------7----|
d----x-------------3--------5-6-----6-------------8------10-----|
a---------------------------------------------------------------|
c--0-------------3-----------------5------------8------10-------|
    *
      Right Hand slap: (slap down with thumb on bass, pull
                        up with index finger in constant 16th
                        note pattern)

"she comes"

e--------------------------|
b--------6~----6~----4~----|
g-----5~----5~----3~-------|
d---8~----8~----6~---------|
a--------------------------|
c---8~----7~----6~---------|
    * The ring gives it the 'flavour'


"she comes and goes, and no one knows, she's slipping...."
                                                     * ("hands")
e----------------------|--------------------------|------|
b-------6-----6-----4--|------6-----6-----4-----6-|--4---|
g-----5-----5-----3----|----5-----5-----3-----5---|--5---|
d---8-----8-----6------|--8-----8-----6-----8-----|--6---|
a----------------------|--------------------------|------|
c---8-----7-----5------|--8-----7-----5-----7-----|------|


"neon, neon"

e------------------------------|
b---------4-----6-----4----4---|
g-------3-----5-----3------3---|
d-----6-----8-----5--------3h5-| (2x)
a------------------------------|
c---5-----7-----0--------------|


"Who knows how long, how long, how long"

e------------------------------------|
b---------4-----6-----4---11-----9---|
g-------3-----5-----3-----10-----8---|
d-----6-----8-----5-------10-----8---|
a-----------------------------x------|
c---5-----7-----0-------10----x--8---|


"She can go before she burns away"

e---------------|
b---4-4-----4-4-|
g---5-5----5-5--|
d---6-6---6-----|
a---------------|
c---------------|

"she comes and goes, and no one knows

e----------------------|-----------------------------------|
b--------6-----6-----4-|------6-----6-----4-----6---9--11--|
g-----5-----5-----3----|---5-----5-----3-----5------8--10--|
d---8-----8-----6------|-8-----8-----6-----8--------8--10--|
a----------------------|-----------------------------------|
c---8-----7-----5------|-8-----7-----5-----7------8----10--|


"neon, neon"

e------------------------------|
b---------4-----6-----4----4---|
g-------3-----5-----3------3---|
d-----6-----8-----5--------3h5-| (2x)
a------------------------------|
c---5-----7-----0--------------|


"Who knows how long, how long, how long"

e------------------------------------|
b---------4-----6-----4---11-----9---|
g-------3-----5-----3-----10-----8---|
d-----6-----8-----5-------10-----8---|
a-----------------------------x------|
c---5-----7-----0-------10----x--8---|


"She can go before she burns away"

e---------------|
b---4-4-----4-4-|
g---5-5----5-5--|
d---6-6---6-----|
a---------------|
c---------------|

This is the little cool bit before you go into the solo

e------------------------------            ------------|
b--------4-----6-----7------9--            ------------|
g------5-----7-----8-----10---- x2  ,then  ---11--11/--|
d----6-----8-----9-----11------            ---11--11/--|
a------------------------------            ------------|
c--5-----7-----8-----10--------            -------10---|


Solo: (just mess around with this)

e-----------------------------------|
b-----------------------------------|
g-----8---------8--------------8----|
d-------------8-------------10------| repeat
a------------------(0)--------------|
c---0-----0h7-----------0h10--------|



5. Victoria


Key:
h-hammer on
s/-shift slide
/-legato slide
p-pull-off

Intro
e-----------------------------------------------------------------------|
b------------1--------------3----------------------------1----------1---|
g------------2--------------2-----------0-------------0----------0------|
d------2--------------0--------------0-----0h2-----2----------0---------|
a---0-----0-------------------------------------3-----------2-----------|
e---------------3--2-----2-----2--3-------------------------------------|

e-------------------------------------------------------|
b------------1--------------3--------------3--------3---|
g------------2--------------2-----------0--------0------|
d------2--------------0--------------4--------4---------|
a---0-----0---------------------------------------------|
e---------------3--2-----2-----2--3---------------------|

Verse I
e-----------------------------------------------------------------------|
b------------1--------------3----------------------------1----------1---|
g------------2--------------2-----------0-------------0----------0------| (X3)
d------2--------------0--------------0-----0h2-----2----------0---------|
a---0-----0-------------------------------------3-----------2-----------|
e---------------3--2-----2-----2--3-------------------------------------|

e-------------------------------------|
b------------1--------------3---------|
g------------2--------------2-----0---|
d------2--------------0-----------0---|
a---0-----0-----------------------0---|
e---------------3--2-----2-----2--3---|

All other verses:
e---0-----------0---0---|
b---1---3---3---1---1---|
g---2---2---0---0---0---| (X3)
d---2---0---0---2---0---|
a---0---x---x---3---2---|
e-------2---3-----------|

e-------|
b---3---|
g---2---|
d---0---|
a---x---|
e---2---|

Pre-chorus
e---7--7h10---10-------2--3---|
b---7--7h8----8--------3--3---|
g---7--7------7--(x4)--2--5---|
d---7--7h9----9--------4--5---|
a---7--7------7--------2--3---|
e---0--0------0--------x--x---|

Chorus
e-----------------------------------|
b---3---3---3---3---3---3---3---2---|
g---2---1---0---2---0---2---2---2---| (X2)
d---0---0---0---0---0---0---2---2---|
a-----------x---x---x---x---0---0---|
e-----------3---2---3---2-----------|

Solo
e---0--0--0--0--0--0--s/-0--------------------|
b---5--5--5--5--5--5--s/-3--------3-----------|
g------------------------------0--------------| (X2)
d---------------------------4--------4/2--0---|
a---------------------------------------------|
e---------------------------------------------|

e---0--0--0--0--0--0--/--0--------------------------------------------------|
b---5--5--5--5--5--5--/--7---5----------0h1--3--1----------3--5--5h7p5--3---|
g-------------------------------4/2--0--------------------------------------|
d--------------------------------------------------2--2/4-------------------|
a---------------------------------------------------------------------------|
e---------------------------------------------------------------------------|

Outro
e-----------------------------------------------------------------------|
b------------1--------------3----------------------------1----------1---|
g------------2--------------2-----------0-------------0----------0------| (X3)
d------2--------------0--------------0-----0h2-----2----------0---------|
a---0-----0-------------------------------------3-----------2-----------|
e---------------3--2-----2-----2--3-------------------------------------|

End on:
e-------|
b---3---|
g---2---|
d---0---|
a---x---|
e---2---|



6. Love Soon


Standard tuning
note: all low e notes should be played with thumb 


Part A: intro and verse 

e----x---x----x----x---- 
b----3---1----8----8---- 
g----0---0----0---11---- 
d----5---3---10---10---- 
a----x---x----x----x---- 
e----3---1----8---10---- 


Part B: "Did you expect to kiss me one time?..." 

e----x---x---x---- 
b----2---3---3---- 
g----2---2---2---- (2x) 
d----2---0---0---- 
a----0---x---x---- 
e----x---3---2---- 


Part C: "So come on and face it..." 

e----0---0---0---- 
b----0---0---0---- 
g----2---1---2---- (2x) 
d----0---2---2---- 
a----2---2---2---- 
e----x---0---0---- 


Part D: "It's time that we say it" 

e----0---5---x---x---- 
b----3---5---x---x---- 
g----5---5---5---7---- 
d----5---4---5---7---- 
a----x---5---3---5---- 
e----5---x---x---x---- 


Part E: Chorus 

e---(3)--x---x---10---- 
b----3---7---8----8---- 
g----0---7---7----7---- (3x) 
d----5---7---5---10---- 
a----5---5---x----x---- 
e----3---x---5----8---- 


Part F: Post-Chorus: "It's what, we are" 

e----x---5---- 
b----5---5---- 
g----5---5---- 
d----5---4---- 
a----x---5---- 
e----5---x---- 


Part G: Bridge i think: "Let's bypass the bullshit..." 

e----10---3--(3)--10---x--x----x---x---- 
b-----8---3---4----8---4--5----5---7---- 
g-----8---0---4----7---6--6----5---7---- 
d-----8---0---0----9---5--5----5---7---- 
a-----x---x---x----7---x--x----x---x---- 
e-----8---3---3----x---5--5----5---7---- 


Part H: "The bottom line is layin' in..." 

e-----x----x---- 
b-----x----x---- 
g----10---12---- (2x) 
d-----8---10---- 
a-----6----8---- 
e-----x----x---- 


Part I: Ending: "I'm callin' it love soon" 

e----x---x---x---- 
b----3---3---1---- 
g----x---2---x---- 
d----5---0---3---- 
a----x---x---x---- 
e----3---2---1---- 


Part J: final chord 

e----5---- 
b----3---- 
g----0---- 
d----4---- 
a----2---- 
e----0---- 


Part K: Optional filler for ending (only played live) 

e----5---3---8---10---- 
b----3---1---6----8---- 
g----x---x---x----x---- (any combination of these four chords) 
d----5---3---8---10---- 
a----x---x---x----x----
e----x---x---x----x---- 


I know you've been sworn
I read your complaint
You're needing someone older
And though I've been warned to live day by day
There's something taking over

Did you expect to kiss me one time
while looking at me with the same eyes ever again?
So come on and face it
So come on and face it
It's time that we say it

You can cross the line whenever you want to
I'm calling it love soon
Close your mind and waste some time if you have to
I'm calling it love soon
It's not about you now
It's what we are

Your mother complains that you need a man
You haven't mentioned me yet
And all of your friends don't know who I am
I've been your best kept secret

I understand I wasn't part of the plan
A dollar short, a minute early
But I am your man
So come on and face it
So come on and face it
it's time that we say it

You can cross the line whenever you want to
I'm calling it love soon
Close your mind and waste some time if you have to
I'm calling it love soon
It's not about you now
It's what we are

Aet's bypass the bullshit and move on because
the minute hand moves faster than you think it does
And by no fault of yours 
And by no fault of mine
The bottom line is laying 
in the bed that we've been playing in tonight

You can cross the line whenever you want to
I'm calling it love soon
Close your mind and waste some time if you have to
I'm calling it love soon
It's not about you now
It's what we are



7. Comfortable


Capo on 3rd fret 

I used the March 2000 webcast (official site) and the album version. 

Intro 

(album) 

e---0h2-------2p0-------0--2--3--2----------2--2--2p0-------0--2--3 
b---3--------------3----3-------------------3--3--3----3----1------ 
g---2-------2-----------0----------------0------------------0------ 
d---0-----0-------------x-----------------------------------2------ 
a-----------------------1-------------2---------------------0------ 
e------------------------------------------------------------------ 

e---2p0------------------------------------------------------------- 
b---1-----3------------0----------2-----------3----------0-----2---3 
g---2------------------0----------2-----------4---------0------2---4 
d---0------------0-----0------0---2-------2---4--------0----0--2---4 
a------------------------------------------------------------------- 
e-------------3-----3------3-----------3------------0--------------- 

* John probably used his thumb on the e string. 


Part 1 

Verse 

(live) 

e----2---0--(0)---2---0---3---------------2--- 
b----3---3--(2)---3---1---1---0---2---3---3--- 
g----2---0--(0)---2---0---2---0---0---0---2--- 
d----0---2--(2)---4---2---0---0---0---0---5--- 
a--------1--(1)--/2---0-------x---0---2---2--- 
e-----------------------------3-----------0--- 

( ) He doesn't always play the chord and but it's a nice addition. 
(x00020) might be (x00220) or (x02220) 
(x20030) might be (x20230). 

(album) 

e--2---0---2---0---2--------------------------------------------------- 
b--3---3---3---1---1--------0--------2--------3--------0-------2------3 
g--2---0---0---0---2--------0--------2--------4--------0-------2------4 
d--0---2---0---2---0----0---0-----0--2-----2--4----0---0----0--2---2--4 
a------1---2---0------------------------------------------------------- 
e---------------------3---3-----3--------3--------0--0----0------0----- 
                                                 *** 
*** Very often, he only plays: 

e------------------- 
b---------0---2---3- 
g---------0---2---4- 
d-----0---0---2---4- 
a------------------- 
e---0---0----------- 

On the album, at 1:00 min 

e------2p0-------------2p0------------2p0------------2------ 
b------3--------------------3---------3--------------1------ 
g-----------2---------------------0--------0-------2----2--- 
d---0-------------2---------------------------------------0- 
a---------------1---1------------2--2---------3--3---------- 
e----------------------------------------------------------- 


Part 2 

"I can't remember..." 

(live) 

e---3---0--0----------0--- 
b---3---3--2----------0--- 
g---0---2--2---(x3)---4--- 
d---0---2--2----------4--- 
a---x---0--0----------x--- 
e---3-----------------4--- 

(album) 

e-----------3-------------------0----------------------------2 
b-----------3----------2-----------2-------------------3--5--- 
g-----------0-------------0-----------0---(x3)-------4-------- 
d------0-------0-------------2---------------------4---------- 
a---------2-------2----0-------------------------------------- 
e---3--------------------------------------------4------------ 


Chorus (live) 

e---2---0---2---0---0---(0)--- 
b---3---3---3---3---2---(2h3)- 
g---2---2---0---2---2---(2)--- 
d---0---0---0---2---2---(2)--- 
a-------2---x---0---0---(0)--- 
e-------x---3----------------- 

(album) 

e---2--0--2---2--0--2---3---0---0-- 
b---3--3--3---3--3--3---3---3---2-- 
g---2--2--2---2--2--2---0---2---2-- 
d---0--0--0---0--0--0---0---2---2-- 
a-------------2--2--2---x---0---0-- 
e-----------------------3---------- 

* John probably used his thumb on the a string. 


Part 3 

"or so they say.." / "I'm not impressed.." 

e---1---0---0---0---3---0-- 
b---1---1---3---0---3---2-- 
g---0---0---2---1---0---3-- 
d---3---2---0---0---0---2-- 
a-----------2---2---x---x-- 
e-----------x---0---3---3-- 

The (3x2320) chord is played with the middle finger (3 on the e str), the 
index (second fret, d and b str) and the ring finger (3 on the g str). 


Part 4 

Interlude 

e---3--2--0----------3------2------ 
b---------------------------------5 
g---------------------------------- 
d---------------------------------- 
a------------------------0--1--3--5 
e--------------0--2--3------------- 

* (x5xx5x) can be replaced by (xx0xx0). 


Part 5 

" I loved you... grey sweatpants..." (live) 

e---------------0------0--2---0--0--(0)-- 
b---3---2---3---3---3--3--3---3--2--(2h3) 
g---0---0---0---0---0--0--0---2--2--(2)-- 
d---0---0---0---2---0--0--0---2--2--(2)-- 
a---x---0---2---2---x--x--x---0--0--(0)-- 
e---3-----------0---3--3--3-------------- 

(album) 

e----------------------------------------------------------------- 
b----------0---------2--------3---------0--0------2------3----3--- 
g----------0---------2--------4------------0------2------4----4--- 
d-----0----0------0--2----2---4-------0----0---0--2---2--4----4--- 
a----------------------------------------------------------------- 
e---3----3------3-------3-----------0---------0------0------0----- 

* John probably used his thumb on the e string. 

e-------------------------------------------------------0-- 
b-----------0-------2--------3-----------2-------3------2-- 
g-----------0-------2--------4-----------2-------4------2-- 
d-----0-----0----0--2-----2--4-----0h2---2----2--4----2---- 
a--------------------------------0-----0----0-------0------ 
e---3----3-----3--------3---------------------------------- 


Part 6 

Last chorus (live) 

e---2---0---0---0---0- 
b---3---3---3---3---2- 
g---2---2---0---2---2- 
d---0---0---2---2---2- 
a-------2---2---0---0- 
e-------x---0--------- 


(1) I just remembered that time at the market 
snuck up behind me and jumped on my shopping cart 
and rolled down aisle five 
you looked behind you to smile back at me 
and crashed into a rack full of magazines 
they asked us if we could leave 

(2) I can't remember what went wrong last September 
though I'm sure you'd remind me if you had to 

our love was comfortable and so broken in 

(1) I sleep with this new girl I'm still getting used to 
my friends all approve, 
say "she's gonna be good for you" 
They throw me high fives 
She says the Bible is all that she reads 
and prefers that I not use profanity 
Your mouth was so dirty 

(2) Life of the party and she swears that she's artsy 
but you could distinguish Miles from Coltrane 

Our love was comfortable and so broken in 
she's perfect 
so flawless 
(3) or so they say 

Interlude (4) 

She thinks I can't see the smile that she's faking 
and poses for pictures that aren't being taken 
(5) I loved you 
grey sweatpants 
no makeup 
so perfect 

(6) Our love was comfortable and so broken in 
she's perfect 
so flawless 
(3)I'm not impressed 
I want you back 


Part 7 

" I want you back..." (live) 

e---0---0---3---0---------------0--- 
b---3---0---3---2---3h2---------2h3- 
g---2---1---0---2-------2-------2--- 
d---0---0---0---2---------2-----2--- 
a---2---2---x---0-----------0---0--- 
e---x---0---3---x------------------- 


Part 8 

" ah..." (live) 

e---------------------------------0---0---0--------2--
b---3---2---3---------3---3---3---3---3---2-------3---
g---0---0---0---------0---2---0---2---0---0------2----
d---0---0---0--(x3)---0---0---2---0---2---2-----0-----
a---x---0---2---------x---x---2-------1---0----0------
e---3-----------------3---2---0---------------2-------

* You could also end with (xx0775) or (X-X-0-7-7-10)



8. Quiet


Capo 2nd fret. 

Intro 

e------------------2-------------------------4-------------------- 
b--4-----4---2----------4--------4---2--------------4--------4---- 
g--4-----4---4-----4----4--------4---4-------4------4--------4---- 
d--2-----2---2----------2--------2---2--------------2--------2---- 
a------------0--0--------------------0--0--0---------------------- 
e--0--0-----------------0--0--0------------------0--0--0--0-----0- 

e------------2---------------------------------- 
b---2---------------4-------4------5--------5--- 
g---4--------4------4-------4------4--------4--- 
d---2---------------2-------2------2--------2--- 
a---0--0--0------------------------0--0--0------ 
e----------------0--0--0--0-----0--------------- 

Part 1 

Verse 

e--------------------------------------- 
b---4------4---5-----5-----4------------ 
g---4------4---4-----4-----4------------ 
d---2------2---2-----2-----2---(etc..)-- 
a--------------0--0--------------------- 
e---0---0---------------0--0------------ 

* If you'd like to strum, you can use Kyle Kessler's chords : (079800)
  and (x09600). 

Part 2 

" There's not a sound.. " 

e--------------------------------(0)-- 
b---------3----3-----------------(0)-- 
g-------4------2---1----2--1---------- 
d-----2--------4---2----2--2---------- 
a---3----------2---------------------- 
e------------------0--0----0---(0)---- 
                  *** 

*** There are some variations: 

1:55min 

e-------------------------------------------------- 
b------------------------3---3------------------0-- 
g---1----1-----------1---4---2---1----2---1-----1-- 
d---2----2---------4-----2---4---4----4---4-------- 
a----------------2-------3---2--------------------- 
e---0--0----0--0-----------------0--0-----0---0---- 

Part 3 

" Somehow, I can't seem to find.." 

e---------------------------- 
b---3---3----5---2---5---2--- 
g---4---2----4---3---4---3--- 
d---2---4----6---2---6---2--- 
a---3---2----4---x---4---x--- 
e---x---x----x---2---x---2--- 

Part 4 

" Daylight is climbing... " 

e--0---0--------------------------------------------------------------0 
b--3---3-------------3----------------------------------------3-------3 
g--0---2--(0)--------0------------0-------0-------0-----------0-------0 
d--2---0--(0)--------x--(x3)----0-------0-------0------------(2)--2---- 
a--2---x---x---0--2--3--------3-------2-------0------5-------(2)------- 
e--0---2---3--------------------------------------------3--2--0--0--0-- 

e--------------------------------------------------------------- 
b---------------------------------------4-----4---5------------- 
g-------0------0------0------0----------4-----4---4------------- 
d-----0------0------0------4------------2-----2---2---(etc..)--- 
a---3------2------0------5------------------------0------------- 
e--------------------------------3--2---0---0------------------- 

ends with 

e------(0)-- 
b------5---- 
g-----4----- 
d----2------ 
a---0------- 
e----------- 


Intro

(1) Midnight 
lock all the doors 
and turn out the lights 
Feels like the end of the world 
this Sunday night 

(2) There's not a sound 
Outside the snow's coming down 
(3) and somehow I can't seem to find 
the quiet inside my mind 

(1) 3:02 
the space in this room 
has turned on me 
and all my fears have cornered me here 
me and my TV screen 

(2) The volume's down 
Blue lights are dancing around 
(3) and still, I can't seem to find 
the quiet inside my mind 

(4) Daylight is climbing the walls 
cars start and feet walk the halls 
The world awakes and now I am safe 
at least by the light of day



enjoyeth
comments
We did not receive enough feedback on this tab! Please rate:
print report bad tab
1 2 3 4 5
2 comments total.
+1 reply
yonni_man wrote on June 22 2009, 05:02 am

10 out of 10 for putting a load of other people's tabs together. Copy and pasting is very difficult!

0 reply
coastTOcoast533 wrote on July 29 2009, 10:40 am

11/10 for titling the album wrong.

I want to post or [tab]
guest
You may want to rate the tab now too:
select rating
Please do not post tabs as comments. Select "correction" instead!