Oops, an error
Loading. Please wait.

Out Of My Mind Tab

ver2
ver2

Intro

More versions @911Tabs.com
2,338 views 15 this week
no commentswrite comment
1 2 3 4 5
excellent!
x 5
Autoscroll
+/-
esc
set tempo
stop
Contributor
Difficulty
advanced
WARNING: You are trying to view
                                    content from Ultimate-Guitar.com
                                    in an unauthorized application,
                                    which is prohibited.

                                    Please use an official Ultimate
                                    Guitar Tabs application for iPhone,
                                    iPad or Android to access legitimate
                                    chords, guitar, bass, and drum tabs
                                    from Ultimate-Guitar.com database.

                                    Type "ultimate guitar tabs" in Apple
                                    App Store's or Android Market's
                                    search to find the application.
-------------------------------------------------------------------------------
                             Out Of My Mind (Live) - John Mayer Trio
-------------------------------------------------------------------------------
Tabbed by: 'thomaslovesyou'
Email: 

Tuning:Standard

E|---------------------------------------------------------------|
B|----------10-----------13b15-10-13-10h13p10--10-------------10-|
G|----------10h11----------------------------12---12p10---12b----|
D|-----9-12--------------------------------------------12--------|
A|--12-----------12~---------------------------------------------|
E|---------------------------------------------------------------|

E|---------------------------------------------------------------|
B|---------------------------------------------------10----------|
G|-10------------------------------------------------10h11-------|
D|------12p10---------------------------------10h12~------9\-----|
A|-----------12p10-10h11p10----10-----10-------------------------|
E|--------------------------13b---13b---13b-10-------------------|

E|-------------------------------------------10------------------|
B|-13b15~-10-13-b(15)r13--10-13--13b15-13b15---13p10-------------|
G|---------------------------------------------------------------|
D|---------------------------------------------------------------|
A|---------------------------------------------------------------|
E|---------------------------------------------------------------|

E|---------------------------------------------------------------|
B|---------------------------------------------------------------|
G|-b(14)r12-10----12-10(x15)--12b-12-10-------10-----------------|
D|--------------------------------------12-12----12p10-----------|
A|----------------------------------------------------12p10------|
E|---------------------------------------------------------------|

E|---------------------------------------------------------------|
B|------------------------------------10h12-x-----10---x---------|
G|--10------------------------------11-------x----10h11-x--------|
D|--10------------10h12~(10)-------x----------12---------x-------|
A|-(12)-12p10---------------------------------------------12-----|
E|-----------13p10-----------------------------------------------|

E|---------------------------------------------------------------|
B|---------------------------------------------------------------|
G|---------------------------------------------------------------|
D|-10h12~-10------10~--------------------------------------------|
A|-----------12\8/9~---------------------------------------------|
E|---------------------------------------------------------------|

E|---------------------------------------------------------------|
B|---15-15~-17b19-15-17--17p15--15h17-15h17p15---15--------------|
G|-16-------------------------17---------------17---17b19r17-----|
D|---------------------------------------------------------------|
A|---------------------------------------------------------------|
E|---------------------------------------------------------------|

E|--------------------------10-----------------------------------|
B|--------------------------10--12-------------------------------|
G|-14-14-17b19--17b22\----------12--10-------10------------------|
D|--------------------------------------12~----12p10-------------|
A|--------------------------------------------------12p10--------|
E|---------------------------------------------------------------|

E|---------------------------------------------(10)--------------|
B|-------------------------------------------------x-------------|
G|---------10h11~--------10-------------------------12~----------|
D|-----9-12-----------12----12~-10-------------------------------|
A|-/12-----------------------------12\11\10~---------------------|
E|---------------------------------------------------------------|

E|---------------------------------------------------------------|
B|---------------------------------------------------------------|
G|-10----------------------10\-----10b-12(x5)-10-12b12p10-----10\|
D|---12p10---------12-9-12-9\---------------------------12-12--9\|
A|--------12p10-8/9----------------------------------------------|
E|---------------------------------------------------------------|

E|---------------------------------------------------------------|
B|-13/15-15~-13/10-------10-10-13-15-(13h15)x4-------------------|
G|----------------12----------------------------(13\12)x3--------|
D|---------------------------------------------------------------|
A|---------------------------------------------------------------|
E|---------------------------------------------------------------|

E|---------------------------------------------------------------|
B|----------13---------------------------------------------------|
G|-12p10------12-12-12-12b-10--------10b\------------------------|
D|-------12-------------------12-12~-----------------------------|
A|---------------------------------------------------------------|
E|---------------------------------------------------------------|

E|-------------------------------------13b15-14b16-13------------|
B|-15~p12-15~p12-15~p12-15~-15~-15~~-----------------15~~(12)----|
G|---------------------------------------------------------------|
D|---------------------------------------------------------------|
A|---------------------------------------------------------------|
E|---------------------------------------------------------------|

E|-15b17~-14b16-13-------13b15----------13b(hold){13-15}x7-------|
B|-----------------15-15~---------15-15------------------- ------|
G|---------------------------------------------------------------|
D|---------------------------------------------------------------|
A|---------------------------------------------------------------|
E|---------------------------------------------------------------|

E|{-13-15b17-15-13-------------------------------------------}---|
B|{---------------15-15~-------------------------------------}---|
G|{----------------------13\12-11b\---13~10------------------}-X3|
D|{----------------------------------------13\12p10----------}---|
A|{------------------------------------------------12p10\5\0-}---|
E|{----------------------------------------------------------}---|

E|---------------------------13----------------------------------|
B|----------------------13-10------------------------------------|
G|-13~10------------------------------------------------10b------|
D|------13\12p10 (x3)----------13\12p10---10-------10h12~--12p10-|
A|--------------------------------------12--12p10--------------12|
E|-----------------------------------------------13--------------|

E|12/14-------------12~----------10(x3)--12-10h11p10-----10------|
B|----17p14-----------------10-13b------------------13p10--13p10-|
G|---------16\15\14-12~------------------------------------------|
D|---------------------------------------------------------------|
A|---------------------------------------------------------------|
E|---------------------------------------------------------------|

E|---------------------------------------------------------------|
B|-------------10---10-10-13b15-(15)-(10)r-----------------------|
G|-13\12-10-12b---------------------------12--pb(14)r12-10-------|
D|---------------------------------------------------------------|
A|---------------------------------------------------------------|
E|---------------------------------------------------------------|

E|-----------------------------------------10-------10-----------|
B|--------------------------------------------13b15~--13-10------|
G|-12-pb(11)r9------------------------7-/11----------------------|
D|------------12-10b(12)-10\-----7--/9---------------------------|
A|-----------------------------/9--------------------------------|
E|---------------------------------------------------------------|

E|----------10---------------------------------------------------|
B|-10-13b15~--13-10--10-13b15--10-13b15-15~-15~---17b19-15-------|
G|---------------------------------------------------------------|
D|---------------------------------------------------------------|
A|---------------------------------------------------------------|
E|---------------------------------------------------------------|

E|---------------------------------------------------------------|
B|-pb(13)r12--10-10~------10h12x-----10---x----------------------|
G|----------------------11------x----10h11-x---------------------|
D|---------------------x---------12---------x--------------------|
A|-------------------------------------------12-10h12p10-8/9-----|
E|---------------------------------------------------------------|


************************************

| /   slide up
| \   slide down
| h   hammer-on
| p   pull-off
| ~   vibrato
| +   harmonic
| x   Mute note
| b   Bend
| pb  Pre-bend
| br  Bend release
| pbr Pre-bend release
| brb Bend release bend

************************************
comments
print report bad tab
I want to post or [tab]
guest
You may want to rate the tab now too:
select rating
Please do not post tabs as comments. Select "correction" instead!