Oops, an error
Loading. Please wait.

Room For Squares Chords

ver1
ver1

Album

More versions @911Tabs.com
41,048 views 66 this week
3 commentsread comments
1 2 3 4 5
worth learning
x 4
add to favorites launch autoscroll
font size
0
reset
transpose
0
reset
highlight chords
display chords
Autoscroll
+/-
esc
set tempo
stop
Contributor
Difficulty
intermediate
WARNING: You are trying to view
                                    content from Ultimate-Guitar.com
                                    in an unauthorized application,
                                    which is prohibited.

                                    Please use an official Ultimate
                                    Guitar Tabs application for iPhone,
                                    iPad or Android to access legitimate
                                    chords, guitar, bass, and drum tabs
                                    from Ultimate-Guitar.com database.

                                    Type "ultimate guitar tabs" in Apple
                                    App Store's or Android Market's
                                    search to find the application.
1. No Such Thing


Intro

                     Emaj9
e------------------------------------------------------------------------|
B--------------------7----------------7------------7---------------7-----|
G--------------------8----------------8------------8---------------8-----|
D--------------------6----------------6------------6---------------6-----|
A--------------------7----------------7------------7---------------7-----|
E---------0----0-----------0----0------------0----------0----0-----0-----|

           Eadd9
e---------------|
B-----7-----7---|
G-----8-----9---|
D-----6-----6---|
A-----7-----7---|
E-----0-----0---|


Verse
Chords:
Amaj9:(x 0 11 13 0 0)
C#7sus4:(x 4 6 4 7 0)
Em9:(0 7 5 7 7 0)
F#7:(2 4 2 3 2 2)
Asus2:(x 0 2 4 0 0)
A6/9:(x 0 4 6 0 0)
Asus2 type 2:(x 0 7 9 0 0)
Am9:(x 0 5 5 0 0)
Fmaj7#11:(1 3 2 2 0 0)
Aadd9:(5 7 7 6 0 0)
G7:(3 5 3 4 3 3)

[Em9]"welcome to the real world"
she [F#7]said to me condescendingly
"take [C#7sus4]a seat, take your life
[Em9]plot it out in black and white"

[Emaj9]well I never lived the dreams of the prom[Amaj9] kings
and the drama queens
I'd like to think the [C#7sus4]best of me
is still hiding [F#7]up my sleeve

Pre-Chorus

they [Asus2]love [A6/9]to [Asus2type2]tell [Amaj9]you [Asus2]"stay [A6/9]
in-[Asus2type2]side [Amaj9]the lines_____[Emaj9]"
but [F#7]something's better [Asus2]on the other side_______[Emaj9]

Chorus

[Emaj9]I want to [Am9]run through the halls of my [Emaj9]high school
I want to scream [Am9]at the top of my [Emaj9]lungs.
I just found out [Am9]there's no such thing as the [Emaj9]real world
just a lie [Am9]you've got to rise a-[Emaj9]bove

Verse

[Emaj9]so the good boys and girls take the [Amaj9]so-called right track
faded white hats grabbing cred-[C#7sus4]its, maybe transfers
they [Em9]read all the books but they can't find the answers
[Emaj9]And all of our parents, they're getting old-[Amaj9]er
I wonder if they've wished for anything [C#7sus4]better
while in their memories, tiny [F#7]tragedies

Pre-Chorus

they [Asus2]love [A6/9]to [Asus2type2]tell [Amaj9]you [Asus2]"stay
[A6/9]in-[Asus2type2]side [Amaj9the lines_____[Emaj9]"
but [F#7]something's better [Asus2]on the other side_______[Emaj9]

Chorus

[Emaj9]I want to [Am9]run through the halls of my [Emaj9]high school
I want to scream [Am9]at the top of my [Emaj9]lungs.
I just found out [Am9]there's no such thing as the [Emaj9]real world
just a lie [Am9]you've got to rise a-[Emaj9]bove

Bridge
[Fmaj7#11] [Aadd9] [Fmaj7#11]
I am invin-[Aadd]cible [Fmaj7#11]
I am invin-[Aadd]cible [Fmaj7#11]
I am invin-[Aadd]cible
as [G7]long as I'm alive

Interlude
[Asus2] [A6/9] [Asus2type2] [Amaj9] [Asus2] 
[Asus2type2]
[Amaj9] [Emaj9]
[F#7] [Asus2]

Chorus

[Emaj9]I want to [Am9]run through the halls of my [Emaj9]high school
I want to scream [Am9]at the top of my [Emaj9]lungs.
I just found out [Am9]there's no such thing as the [Emaj9]real world
just a lie [Am9]you've got to rise a-[Emaj9]bove

Verse

I just can't wait [Am9]for my ten year re-[Emaj9]union
I'm gonna bust [Am9]down the double doors[Emaj9]
and when I stand[Am9] on these tables be-[Emaj9]fore you
you will know[Am9] what all this time was [Emaj9]for


2. Why Georgia


Intro: D5 - Dadd4 - D5 - Dadd4

D5   Dadd4      D5     Dadd4
I am driving up eighty-five in the

D5      Dadd4        D5        D6add4   C6*9
Kind of morning that lasts all afternoon

                                D5 - Dadd4 - D5 - Dadd4
I'm just stuck inside the gloom

D5        Dadd4    D5  Dadd4
Four more exits to my apartment

    D5   Dadd4      D5       D6add4      C6*9
But I am tempted to keep the car in drive

                       D5-Dadd4
And leave it all behind

Em7      D5     G5
'Cause I wonder sometimes

          Em7
About the outcome

           D5          G5
Of a still verdictless life

D5             Asus4 - G5
Am I living it right

D5             Asus4 - Em7
Am I living it right

D5             Asus4 - G5
Am I living it right

F        C        G5
Why, why Georgia, why


D5       Dadd4      D5       Dadd4
I rent a room and I fill the spaces with

D5      Dadd4     D5      D6add4        C6*9
Wood in places to make it feel like home

                      D5 - Dadd4
But all I feel's alone

D6add4                           C6*9
It might be a quarter-life crisis

                               D5 - Dadd4
Or just the stirring in my soul


Either way

Em7 D5     G5
I   wonder sometimes

          Em7
About the outcome

           D5          G5
Of a still verdictless life

D5             Asus4 - G5
Am I living it right

D5             Asus4 - Em7
Am I living it right

D5             Asus4 - G5
Am I living it right

F        C        G5
Why, why Georgia, why

A#sus2          Csus2 A#sus2
So what so I've got a smile on

                    Csus2         A#sus2
But it's hiding the quiet superstitions in my head


G5      Csus2 D5
Don't believe me

G5      Csus2 D5
Don't believe me

       Em7 Dsus2 Cm9   F   D5 - Dadd4
When I say I've got it down

D5   Dadd4   D5     Dadd4
Everybody is just a stranger

    D5         Dadd4
But that's the danger in

D5    Dadd4     C6*9
Going my own way

                                    D5 - Dadd4 - D5 - Dadd4
I guess it's the price I have to pay

Em7              D5            G5
Still everything happens for a reason

      Asus4
Is no reason not to ask myself if I am

D5        Asus4 - G5
living it right

D5             Asus4 - Em7
Am I living it right

D5             Asus4 - G5
Am I living it right

F
Why, tell me why

F        C        G5
Why, why Georgia, why


3. My Stupid Mouth


MY STUPID MOUTH - JOHN MAYER


D - D/C# - D/F# - G  - Bm  -  D/F#  - G


Verse 1:
          D         D/C#
My stupid mouth Has got me in trouble
D/F#       G
I said too much again
Bm     D/F#             G
  To a date over dinner yesterday
           Bm    D/F#
And I could see  she was offended
G
She said "well anyway..."
Bm   D/F#        G
Just dying for a subject change
G       F#sus/A#      F#/A#     Bm7 . . . 
   D7       G
Oh, a - nother social casualty            Score one more for me
G         D/F#      Em7                      D/F#
How could I forget?  Mama said "think before speaking"
G         D/F#            F2
No filter in my head  Oh, what's a boy to do
  G2/B                      D - D/C# - D/F# 
G - Bm - D/F# - G
I guess he better find one soon

Verse 2:
           D        D/C#                  D/F#                  G
We bit our lips she looked out the window rolling tiny balls of napkin paper
Bm          D/F#                         G
 I played a quick game of chess with the salt and pepper shak - er
Bm     D/F#               G                      Bm
 And I could see clearly   an indelible line was drawn
Bm      D/F#                G
Between what was good, what just slipped out and what went wrong
G       F#sus/A#       F#/A#
Oh, the way she feels about me has changed
Bm7 . . . D7sus4              D7     G
          Thanks for playing, try a -gain.
G         D/F#      Em7                       D/F#
How could I forget?   Mama said "think before speaking"
G         D/F#            F2
No filter in my head  Oh, what's a boy to do
  G2/B
I guess he better find one

Chorus:
D     D/C#    D/F#     G      Bm
 I'm  never   speaking up a - gain
    D/F#   G
It  only   hurts me
Bm   D/F#   G            Bm
I'd  rather be a myste - ry
     D/F#     G
Than she de - sert me
Bb - - -
Oh I'm never speaking up again
         D - D/C# - D/F# - G - Bm - 
- Gm/Bb . . .
Starting now

Verse 3:
         D      D/C#         D/F#
One more thing  why is it my fault?
           G       Bm
So maybe I try too hard
         D/F#          G
But it's all because of this desire
                Bm             D/F#          G
I just wanna be liked, I just wanna be fun - ny
                            Bm     D/F#            G
Looks like the jokes on me,   so   call me captain backfire
G       F#sus/A#      F#/A#     Bm7 . . . 
   D7       G
Oh, a - nother social casualty            Score one more for me
G         D/F#      Em7                      D/F#
How could I forget?  Mama said "think before speaking"
G         D/F#            F2
No filter in my head  Oh, what's a boy to do
  G2/B                     D - D/C# - D/F# 
G - Bm - D/F# - G
I guess he better find one soon

4. Your Body Is A Wonderland


Intro: F . Csus4 . Bb . Csus4.

Verse 1: (chords of intro)
F .    Csus4 .    Bb .  Csus4 .  F .    
.  Bb .      Csus4 .
We've  got the afternoon,        You've got this room for two
F .   Csus4 .    Bb .    Csus4 .  F .       
Csus4 .   Bb .  Csus4 .
One   thing I've left to do,   Discover me discovering you
F .  Csus4 . Bb .  Csus4 .  F .  
.    Bb .   Csus4 .
One  mile to every inch of, your skin  like porcelain
F .   Csus4 . Bb .  Csus4 .       F .       
.  Bb . Csus4 .
One   pair of candy lips and your bubblegum tongue

Bridge:
           Gm . . .        Csus4 . . .
And if you want love we'll make it
                Gm . . .    Csus4 . . .
We'll swim in a deep sea of blankets
              Gm . . .      Csus4 . . .
Take all your big plans and break 'em
        Gm .     F/A .   Bb2 . . .
This is bound to be  a while

Chorus:
               F .   Csus4 .  Bb . Csus4 .
Your body is a wonderland
               F .         Csus4 .  Bb . Csus4 .
Your body is a wonder I'll use  my  hands
               F .   Csus4 .  Bb . Csus4 .
Your body is a wonderland                  (Repeat)

Verse 2: [F - Csus4 - Bb - Csus4]

Something 'bout the way the   hair falls in your face
I love the shape you take when crawling towards the pillow case
You tell me where to go though I might leave to find it
I'll never let your head hit the bed without my hand behind it (to bridge)

Bridge 2:
Dm7add9
Damn, baby  You frustrate me
Dm7add9
I know you're mine all mine all mine
Dm7add9
But you look so good it hurts sometimes

Break: Dm7add9 . . . Dm7add9 . . . Dm7add9 . . . Dm7add9 . . .


5. Neon


"Neon"

tuning... drop low E waaaay down to a C


(PART I)

e---------------------------------------------------------|
b----8-------------4--------------4-----------9-------8---|
g------10--------3--------------3---3--------8-------7----|
d--------------3------5-6-----6-------------8------10-----|
a---------------------------------------------------------|
c--0---------3---------------5------------8------10-------|


(PART II)

e-----------------|
b---6----6----4---|
g---5----5----3---|
d---8----8----6---|
a-----------------|
c---8----7----6---|


(PART III)

e-----------------------------------|
b---6---6---4---6---6---4---6---4---|
g---5---5---3---5---5---3---5---5---|
d---8---8---6---8---8---6---8---6---|
a-----------------------------------|
c---8---7---6---8---7---5---7-------|


(PART IV)

e--------------------|
b---4---6---4----4---|
g---3---5---3----3---|
d---6---8---5--3h5---| (2x)
a--------------------|
c---5---7---0--------|


(PART V)

e------------------------|
b---4---6---4---11---9---|
g---3---5---3---10---8---|
d---6---8---5---10---8---|
a------------------------|
c---5---7---0---10---8---|


(PART VI)

e---------------|
b---4-4-----4-4-|
g---5-5----5-5--|
d---6-6---6-----|
a---------------|
c---------------|


(PART VII)

e--------------- ---------------------------|
b---6---6---4--- ---6---6---4---6---9---11--|
g---5---5---3--- ---5---5---3---5---8---10--|
d---8---8---6--- ---8---8---6---8---8---10--|
a--------------- ---------------------------|
c---8---7---6--- ---8---7---5---7---8---10--|


(PART VIII)

e------------------ ------------|
b--4---6---7----9-- ------------|
g--5---7---8---10-- ---11--11/--|
d--6---8---9---11-- ---11--11/--|
a------------------ ------------|
c--5---7---8---10-- --------10--|


(PART IX)

e-----------------------------------|
b-----------------------------------|
g-----8---------8--------------8----|
d-------------8-------------10------| (repeat)
a------------------(0)--------------|
c---0-----0h7-----------0h10--------|


(I)
When sky blue gets dark enough
To see the colors of the city lights
A trail of ruby red and diamond white
Hits her like a sunrise

(II)
She comes and goes and comes and goes
Like no one can

(I)
Tonight she's out to lose herself
And find a high on Peachtree Street
From mixed drinks to techno beats it's always
Heavy into everything

(III)
She comes and goes and comes and goes
Like no one can
She comes and goes and no one knows
She's slipping through my hands

(IV)
She's always buzzing just like
Neon, neon
Neon, neon
(V)
Who knows how long, how long, how long
(VI)
She can go before she burns away

(I)
I can't be her angel now
You know it's not my place to hold her down
And it's hard for me to take a stand
When I would take her anyway I can

(VII)
She comes and goes and comes and goes
Like no one can
She comes and goes and no one knows
She's slipping through my hands

(IV)
She's always buzzing just like
Neon, neon
Neon, neon
(V)
Who knows how long, how long, how long
(VI)
She can go before she burns away

-then parts VIII and IX


6. City Love


Drop D Tuning
note:  all low E notes played with thumb except chords in part F


Part A: "I never liked this apple much"

e----------------------------------------------------------|
b----------------------------------------------------------|
g------4--7--4------------x--x--x-------x--x--x-------x----|
d---7--5--7--5--7--4------4--4--x-------4--4--x-------4----|
a---7-----------7--5------5--5--x-------5--5--x-------5----|
d---------------------7---5--5--x---2/--5--5--x---2/--5----|


Part B: "It always seemed to big to touch"

e----------------------------------------------------------|
b----------------------------------------------------------|
g------4--7--4------------x--x--x-------x--x--x-------x----|
d---7--5--7--5--7--4------4--4--x-------4--4--x-------4----|
a---7-----------7--5------5--5--x-------5--5--x-------5----|
d---------------------7---0--0--x---2/--0--0--x---2/--0----|


"I can't remember how I found" (Part A)


Part C: "My way before she came around.  I tell..."

e------------------------------------------|
b------------------------------------------|
g------4--7--4------------x---x---x---x----|
d---7--5--7--5--7--4------4---5---7---5----|
a---7-----------7--5------5---7---9---7----|
d---------------------7---0---0---0---0----|


Part D: "...everyone, I smile just because..."

e----0-----x----|
b----0----10----|
g----0----10----|  (2x)
d----2-----7----|
a----3-----8----|
d----3-----8----|


Part E: "...can't remember life before her name"

e------------------------------------------------|
b------------------------------------------------|
g------------------------7--7/97---7--7/97-------|
d----9---4----9---4------7--7/97---7--7/97-------|
a---10---5---10---5------7--7/97---7--7/97-------|
d---10---5---10---5---0--------------------------|


"She keeps a suit case..." (Part A)
"As if I had the extra..." (Part B)
"She steals my clothes..." (Part A)
"I know, her hairs are..." (Part C)


Part F: "...the day, she called up and came to me..."

e----x-----x----x----|
b----3----10---11----|
g----0-----x----x----|  (2x)
d----3----10---10----|
a----1-----8----8----|
d----1-----8----8----|


Part G: "...the clothes spun we spooned..."

e----3---3---x-------------------------|
b----3---3---3-------------------------|
g----3---3---0----x---x---x---x---x----|
d----5---2---3----7---5---7---5---7----|
a----x---3---1----9---7---9---7---9----|
d----5---x---1----0---0---0---0---0----|


Part H: Solo

e----------------------------------------------------------------------------------------------|
b--10/12-------10----------------------------------------------------10----7-------------------|
g---------9/11----119--7---9/11-9/11------7-9--------7-9/11-9/11-------------7-6---7/9-97/97---|
d-------------------------9------------7/9-----9--7h9--------------7-----9--------9-7/9-97/97--|
a----------------------------------------------------------------------------------------------|
d----------------------------------------------------------------------------------------------|

e--------------10----10---/14-10~--------10----13-10-12----10~--------------------------|
b----------------------------------10-12----12----------13------13-10--12-12--10--------|
g-------7--/11----11---------------------------------------------------12-12--10--------|
d---7h9----------------------------------------------------------------------------12~--|
a---------------------------------------------------------------------------------------|
d---------------------------------------------------------------------------------------|

e---5----5-----5-------------------------|
b---5h7--5-----3--5--5--5----------------|
g-----------7--6--4--7--6--4---6---4/6---|
d------------------------------7---5/7---|
a----------------------------------------|
d----------------------------------------|

* The (/14) and all the (9/11) except the first one are bended notes..


Part I: Ending

e------------------5---------x----|
b---------------5-----7--5---3----|
g---------4--7--6-----7--6---2----|
d------7--5--7---------------0----|
a------7---------------------0----|
d---0------------------------0----|


I never liked this apple much
It always seemed too big to touch
I can't remember how I found
My way before she came around

I tell everyone
I smile just because
I've got a city love
I found it in Lydia
And I can't remember life before her name

She keeps a toothbrush at my place
As if I had the extra space
She steals my clothes to wear to work
I know - her hairs are on my shirts

I tell everyone
I smile just because
I've got a city love
I found it in Lydia
And I can't remember life before
The day
She called up and came to me
Covered in rain
And dinnertime shadowing
And as her clothes spun, we spooned
And I knew I was through
When I said "I love you"

Friday evening, we've been drinking
2 AM, I swear I might propose
but we close the tab
split a cab
and call each other up when we get home
falling asleep to the sound
of sirens

I've got a city love
I found it in Lydia

From the battery
To the gallery
It's the kind of thing you only see
In scented, glossy magazines

And I can't remember life before her name


7. '83


Superman intro

e-----------------------------|
b---------------5-------------|
g---4---6---9---6-------------|
d---2---4---7---4---(etc..)---|
a---0---0---0---5-------------|
e-----------------------------|


Part 1

Verse

e---------4--------4----------------------------------------------0----------|
b---2-----2--------2----5-----5--------5----3----3------2----0----0----0-----|
g---------4--------4----4-----4--------4----0----0------0----0----0----0-----|
d---2-----2--------2----2-----2--------2----4----4------4----2---------4-----|
a---0--0-----0--0-------0--0-----0--0----------------------------------------|
e-------------------------------------------0--0---0--0------0--0------0--0--|

* I think that John might be playing (02403x), (02402x), (022000), (024000), but it
  doesn't really make a difference if you fingerpick the song.


Part 2

Oh these days..

e-------4----------|
b---5---2----------|
g---6---4----------|
d---4---2---(x4)---|
a---5---0----------|
e------------------|


Part 3

Chorus

e---0---------5---3----------------------|
b---3--------(0)-(0)----------3---3--5---|
g---5---------5---5-----------5---4--6---|
d---5------4----------(x3)----5---2--4---|
a---x---/5--------------------x---3--5---|
e---5-------------------------5----------|


Part 4

"And most my memories.."

e-------5--- ---4---x--x--x--x---4--(7)---x--x--x--x---|
b---3---5--- ---5---2--2--2--2---5--(5)---2--2--2--2---|
g---5---5--- ---4---3--3--4--3---4--(4)---3--3--4--3---|
d---5---4--- ---6---2--2--2--2---6--(6)---2--2--2--2---|
a---x---5--- ---4---x--x--x--x---4--(4)---x--x--x--x---|
e---5------- -------2--2--2--2------------2--2--2--2---|
                    T                     T

* (2x232x)/(2x242x) were taken from Elliot Kleinfelder's tab


Part 5

"If heaven's.."

e-------2-----------------------5---|
b---4---3---0-----0-----3---5---2---|
g---4---2---1-(2)-1-----4---6---4---|
d---4---4---0-(0)-0-----2---4---2---|
a---2---2---2-(4)-2-----3---5---0---|
e-----------0-(0)-0-----------------|


Jam

e---7---9---12-------------|
b----------------12---12---|
g---7---9---12---12---11---|
d----------------10---10---|
a----------------12----x---|
e---------------------10---|


Part 6

"Was more like 1983.."

e----------------0---|
b---12--12--10---0---|
g---12--11--11---1---|
d---10--10---9---4---|
a---12---x---x---2---|
e-------10--11---0---|


Intro

(1)

I have these dreams I'm walking home
home where it used to be
everything is as it was
frozen in front of me

Here I stand six feet small
romanticizing years ago
well it's a bittersweet feeling
hearing "Wrapped Around Your Finger" on the radio

(2) and these days
I wish I was six again
oh make me a red cape
I wanna be Superman

(3) oh if only my life was more like 1983
all these things would be more like they were at the start of me
I had it made in 83

(1)

thinking about my brother Ben
I miss him everyday
he looks just like his brother John
but on an eighteen month delay

here I stand six feet small
and smiling cause I'm scared as hell
kinda like your life is like a sequel to a movie
where the actors' names have changed

(2) well these days
I wish I was six again
oh make me a red cape
I wanna be Superman

(3) oh if only my life was more like 1983
all these things would be more like they were at the start of me
if my life was more like 1983
plot a course to the source of the purest little part of me

(4)

and most my memories have escaped me
or confused themselves with dreams
(5) if heaven's all they want it to be
send your prayers to me care of 1983

(Jam)

you can paint that house a rainbow of colors
rip out the floorboards
and replace the the shutters
but that's my plastic in the dirt

whatever happened to my
whatever happened to my
whatever happened to my lunchbox
when came the day when it got
thrown away and
don't you think I should have had some say in that decision

more like
more like
more like (7) 1983


8. 3X5


Capo : 8

Chords:

   Em7 - 022030
 Em6/9 - 022022
Em(M9) - 02404x
    G7 - 300001
    B7 - x21202
 Cadd9 - x32033
    F# - 003233
   G13 - 3x3200
    Am7- 002010
Cm6(M7)- 031200

strumming- down, down, up, up, down
(fast-chords progressions go fast at some parts)

Intro: Em7    Em6/9    Em    Em(M9)

mostly plucking- just pluck the strings in the chord and you'll be able to figure it out.


Em7         G7
I’m writing you to
Cadd9             B7             Em7
Catch you up on places I’ve been
Em7              G7
You held this letter
Cadd9          B7                   Em7
Probably got excited, but there’s nothing else inside it


              C    G  D  C      F#
Didn’t have a camera by my side this time
               C    G    D    C     F#
Hoping I would see the world with both my eyes
               C    G   D  C F#
Maybe I will tell you all about it when i’m
Em              D
In the mood to lose my way with words

Repeat Intro


Em7    G7                Cadd9         B7              Em7
Today skies are painted colors of a cowboy’s cliche’
Em7               G                     Cadd9           B7
And strange how clouds that look like mountains in the sky
Em7
Are next to mountains anyway


              C    G  D  C      F#
Didn’t have a camera by my side this time
               C    G    D    C     F#
Hoping I would see the world with both my eyes
               C    G   D  C F#
Maybe I will tell you all about it when i’m
Em              D
In the mood to lose my way with words


      G          G13          Am7               Cm6(M7)
You should have seen that sunrise with your own eyes
     G          G13     Am7   Cm6(M7)
It brought me back to life
  G         G13          Am7       Cm6(M7)
You’ll be with me next time I go outside
G         G13       Am7    Cm6(M7)
Just no more 3x5’s


Repeat Intro

C     G  D    C     F#
Today I finally overcame
                     C   G   D C     F#
Tryin’ to fit the world inside a picture frame
               C   G    D  C   F#           Em
Maybe I will tell you all about it when I’m in the mood to
D
Lose my way but let me say


        G        G13          Am7               Cm6(M7)
You should have seen that sunrise with your own eyes
      G         G13       Am7     Cm6(M7)
It brought me back to life
    G       G13          Am7       Cm6(M7)
You’ll be with me next time I go outside
G     G13  Am7  Cm6(M7)
No more 3x5’s
G          G13    Am7     Cm6(M7)
Just no more 3x5’s

9. Love Song For No One


Love song for no one - john mayer   capo 2, all chords relative to capo

Intro G, A7, Em7, C2  G*, A7, 
C2
G            Bm*
Staying home alone on a Friday
  G           Bm*
flat on the floor looking back
F
on old love
F/C  F/C*
or lack thereof

G             Bm*
After all the crushes have faded
 G             Bm*
and all my wishful thinking was wrong
 F
I'm jaded
 F/C   F/C*
I hate it

G            Bm
I'm tired of being alone
Em7                C2
so hurry up and get here
G             Bm
So tired of being alone
Em7            C2
so hurry up and get here  get here


Intro chords

 G                   Bm*
Searching all my days to find you
G              Bm*
not sure what I'm looking for
F
I'll know where
F/C       F/C*
when I see you

G                  Bm*
Until then I'll hide in my bedroom
 G                  Bm*
just staying up all night just to write
 F
a love song
F/C    F/C*
for no one

G            Bm
I'm tired of being alone
Em7                C2
so hurry up and get here
G             Bm
So tired of being alone
Em7            C2
so hurry up and get here

 Am7   C/B              C
           I could have met you in a sandbox
 Am7 C/B               Em7
          I could have passed you on the sidewalk
  Am7 C/B               C                   C        
   C/B    F
          Could I have missed my chance and watched you walk away


Am7  C/B               C
          I could have met you in a sandbox
Am7 C/B                Em7*
          I could have passed you on the sidewalk
 Am7 C/B                C                   C        
   C/B    F
          Could I have missed my chance and watched you walk away

 G            Bm
I'm tired of being alone
Em7                C2
so hurry up and get here
G             Bm
So tired of being alone
Em7            C2
so hurry up and get here

G      A7     Em7   C2
You'll be so good
G      A7      Em7        C2
You'll be so good for me
G  A7        Em7            C2
I know you'll be so good
D D G D D G D D G
for me
D D G D D G D D GD D G D D G
for me

chord voicings
     G       A7         Bm *         Bm       
       C2
E   3         x          x            x         0         x

a   x         0          2           2         2         3

d   0         2           0          4         2         2

g   0        1           4           4         0         0

b   3         3          x          3         3         3

e    3        0           x         x         3         3


    D      Am7        C/B     Em7 *      F  
  F/C     F/C*      C     G*
E   x        x          x       0         1     8        8        x    3

a   0        0          2       2         3     x       x        3     x

d    0        2         0       2         3     7       7        2     0

g     2       0         0       0         2     x       x        0     0

b     3       1         1       3         1     6       5        1     3

e     2        0         0      x         1     8       8        0     2

10. Back To You


Back To You by John Mayer

Intro:  A-F#m-Bm-E-F#m

A
Back to you
                 F#m
It always comes around

Back to you
              Bm
I tried to forget you
                 E
I tried to stay away
             F#m
But it's too late

A
Over you
           F#m
I'm never over

Over you
           Bm
Something about you
                      E
It's just the way you move
                 F#m
The way you move me

E
Yeah
       F#m        D         E
I'm so good at forgetting
            F#m  D      E
And I quit every game I play
       F#m  C#m D
But forgive me, love
        Bm            E
I can't turn or walk away

A
Back to you
                F#m
It always come around

Back to you
                 Bm
I walk with your shadow
                   E
I'm sleeping in my bed
             F#m
With your silhouette

E
Yeah
            F#m            D         E
Should have smiled on that picture
              F#m            D      E
If that's the last that I'll see of you
         F#m   C#m  D
It's the least that you
Bm        E
Could not do

Adlib:  F-C-G

A         D
Leave the light on
E                     A
I'll never give up on you
E         A         D
Leave the light on
    F#m
For me too
    C#
For me too
    C
For me too
D
Yeah

Instrumental:  A-F#m-Bm-E-F#m

A
Back to me
               F#m
I know that it comes

Back to me
           Bm
Doesn't it scare you
                    E
Your will is not as strong
              F#m
As it used to be


11. Great Indoors


Drop D, capo on 5th fret

Intro

e-------0---0---0---0---2--|
b---3---2---3---3---3---3--|
g---0---0---0---0---0---0--|
d---4---2---4---4---4---4--|
a---5---0---0---2---0---x--|
d---0-------------------5--|

The chord (5x4032) is almost impossible to do if you don't let your
fingers in place after (x04030).


Part 1

Verse

e-------0---0---0---0---5---|
b---3---2---3---2---3---3---|
g---0---0---0---0---0---3---|
d---4---2---4---2---4---0---|
a---5---0---0---0---2---3---|
d---0-------------------x---|


Part 2

First chorus

e------------------------------|
b---3---2---3---2----------5---|
g---2---2---2---2----------0---|
d---4---2---4---2---(x2)---7---|
a---0---0---0---0----------x---|
d---0---0---0---0----------5---|


Part 3

Second chorus

e----------------0----------0--5---0--5-|
b---3---2---3---/7----------5--0---5--0-|
g---2---2---2----0----------0--0---0--0-|
d---4---2---4---/7---(x2)---7--7---7--7-|
a---0---0---0---------------x--x---x--x-|
d---0---0---0---------------5--5---5--5-|


Part 4

"Though lately I can't blame you.."

e----x--x--x--x---x---0---0---0---|
b----x--x--x--x---3---5---3---5---|
g----3--3--3--3---0---6---4---6---|
d----7--5--7--5---4---7---5---7---|
a----x--x--x--x---2---x---x---x---|
d----5--5--5--5---x---7---5---7---|

* (x2403x) is sometimes played this way (x2463x)


Part 5

(from 8-11-01 and 8-23-00)

e-----------------------------------------------------------2--0--2--0---|
b---3---2---3---2---3---5---7---5---7---5---7---5---3---3---3--3--3--3---|
g---2---2---2---2---2---0---0---0---0---0---0---0---0---0---0--0--0--0---|
d---4---2---4---2---4---5---7---7---7---7---7---7---4---4---4--4--4--4---|
a---0---0---0---0---0---------------x---x---x---x---2---0---x--x--x--x---|
d---0---0---0---0---0---------------5---5---5---5-----------5--5--5--5---|
                                    T   T   T   T

"So go unlock the door.."

e-----------2--0--2--0------------2---|
b---3---3---3--3--3--3----3---3---3---|
g---0---0---0--0--0--0----0---0---0---|
d---4---4---4--4--4--4----4---4---4---|
a---2---0---x--x--x--x----2---0---x---|
e-----------5--5--5--5------------5---|


"Leave the great indoors"

e---------------------------------------------------|
b---3---2---3---2---3---5---7---5---7---5---7---5---|
g---2---2---2---2---2---0---0---0---0---0---0---0---|
d---4---2---4---2---4---5---7---7---7---7---7---7---|
a---0---0---0---0---0---------------x---x---x---x---|
d---0---0---0---0---0---------------5---5---5---5---|
                                    T   T   T   T

Part 6

e---0---0-------5---|
b---3---2---3---3---|
g---0---0---0---3---|
d---4---2---4---x---|
a---5---0---2---3---|
e---0---------------|


Intro

(1) Check your pulse
Its proof that you're not listening to
The call your life's been issuing you
The rhythm of the line of idle days

(2) Scared of the world outside you should go explore
Pull all the shades and wander the great indoors (004030)

(1) Lamplight makes the shadows play
and posters take the walls away
The TV is a window pane
The view wont let you down

(1) So put your faith in a late night show
I bet you didn't even know
Depends on how far out you go
The channel numbers change

(3) Scared of the world outside you should go explore
Pull all the shades and wander the great indoors
(4) Though lately I can't blame you
I have seen the world
And sometimes wish your room had room for two
So go unlock the door
and find what you are here for
(3) Leave the great indoors
(3) Leave the great indoors

(5)

(6) Check your pulse
Its proof that you're not listening to
the call your life's been issuing you
The rhythm of the line of idle days


12. Not Myself


CAPO ON 1ST FRET

Intro:

G     D      F     C

Verse 1:

G                    D       F         C
     sup-pose I said   I am on my best behaviour
G                         D              F                    C
    and there are times                    I lose my worried mind?
 G                    C              D          C
would you want me when ---- I'm not my self?
 G               C                     D                    C
        wait it out while I     am someone else

G           D                  F                     C
   Sup-pose I said            col  - ors change for no good reason
G                  D          F               C
     And words will go from    po-et-ry to prose?

    G           C                   D           C
   Would you want me when I'm not my self?
    G           C                    D           C
   Wait it out while I am some one else

Em    D    C      Em    D    C
And I            In time
      Em   D     C
  Will come a - round
  G      Am            A
I      always          do
   C
For you
 G      D     F     C

 G      D     F     C
   G                D
   Sup - pose I said you're
     F       C                 G                    G
   my saving grace           My grace...  would you want me
     C          D                   C                        C
   When I'm not myself...        not myself    when I'm someone
   G                                 C                           D
   Else.....................      when I'm someone else
                                C
               When I'm some - one else       when i'm not my -
G                 C
      Self


Begin to Fade

G                     C                D          C
  Wait it out while I    am   some - one else
G                     C                D       C
  Wait it out while I    am   some - one else

13. Unknown


14. St. Patricks Day


Intro

e---0---|
b---7---|
g---8---|
d---6---|
a---7---|
e---0---|


Part 1

Verse

(album)

e---0-----------0-----7---7-------5---|
b---7---7---7---5---5-5---5---5---5---|
g---8---8---9---6---6-6---5---4---4---|
d---6---6---9---6---6-6---5---4---4---|
a---7---x---x---x---------x---x---x---|
e---0---8---9---6---5-5---5---4---3---|

(live)

e---0-----------------0-----7---7-----------|
b---7---7---7--9--7---5---5-5---5---5---5---|
g---8---8---9--9--9---6---6-6---5---4---4---|
d---6---6---9--9--9---6---6-6---5---4---4---|
a---7---x---x--x--x---x---------x---x---x---|
e---0---8---9--9--9---6---5-5---5---4---3---|


Part 2

"Who knows what will be.."

e-------0------------- -------0-----------|
b---3---5---2---2-0--- ---3---5---2---3---|
g---4---6---2---2-2--- ---4---6---2---2---|
d---4---6---0---0-0--- ---4---6---0---0---|
a---x---x---x---x-x--- ---x---x---x---x---|
e---4---5---2---3-3--- ---4---5---2---3---|

(3x023x) is (3x020x) on the album.


Part 3

Chorus

(album)

e----------------------------------------|
b--10----9---12---10----9------------9---|
g--11---11---11---11---10---10--11--10---|
d---9----9----9----9----9----9---9---x---|
a---7----7----x----x----x----x---x---8---|
e---0----0---11---10----9----9--11-------|

(live)

e---------------------------------------|
b--10----9---12---10----9-----------9---|
g--11---11---11---11---11--10--11--10---|
d---9----9----9----9----9---9---9---x---|
a---7----7----x----x----x---x---x---8---|
e---0----0---11---10----9---9--11---x---|

(x8x109x) doesn't sound very good after (11x911xx) but it's what I saw on the webcast.
I still play (13.x.11.13.x.x)


Part 4

"No one wants to be alone at Christmas time.."

e---9---(9)---7---(7)---0---|
b--10----9----8----7----0---|
g---9----9----7----7----2---|
d--11----9----9----7----2---|
a---9---11----7----9----0---|
e---------------------------|


Part 5

"And we'll both be safe.."

e---9---9---0---0---0---|
b--10---9---0---0---7---|
g---9---9---6---8---8---|
d--11---9---7---9---6---|
a---9--11---x---x---7---|
e-----------5---7---0---|


Part 6

"We should take a ride tonight.."

e---7---5---5---------7---5---5---|
b---5---5---3---3-3---5---5---3---|
g---5---5---0---4-4---5---5---0---|
d---5---4---4---3-3---5---4---4---|
a---x---5---x---x-x---x---5---x---|
e---5---x---3---4-4---5---x---3---|

(3x4035) is sometimes (3x4033)


Part 7

"Everybody.."

e---5----0----0----0---|
b---8----3----8----8---|
g---7----6----0---11---|
d---5----5---10---12---|

enjoy
3 comments total.
0 reply
yonni_man wrote on June 22 2009, 02:37 pm

Stop compiling other tabs in to an album. There is no need!

0 reply
blues123 wrote on June 22 2009, 03:10 pm

You didn't go into any detail. You just listed the chords for most of the songs.

0 reply
c_foster88 wrote on July 11 2010, 04:52 pm

And some of these are just wrong.

I want to post or [tab]
guest
You may want to rate the tab now too:
select rating
Please do not post tabs as comments. Select "correction" instead!