Oops, an error
Loading. Please wait.

St Patricks Day Bass Tab

ver1
ver1

Whole song

Interactive

More versions @911Tabs.com
2,808 views 15 this week
no commentswrite comment
1 2 3 4 5
accurate
x 1
Autoscroll
+/-
esc
set tempo
stop
Contributor
Hey! There's an official Ultimate Guitar app which is ideal
for learning songs when you're away from computer. Get the app
WARNING: You are trying to view
                                    content from Ultimate-Guitar.com
                                    in an unauthorized application,
                                    which is prohibited.

                                    Please use an official Ultimate
                                    Guitar Tabs application for iPhone,
                                    iPad or Android to access legitimate
                                    chords, guitar, bass, and drum tabs
                                    from Ultimate-Guitar.com database.

                                    Type "ultimate guitar tabs" in Apple
                                    App Store's or Android Market's
                                    search to find the application.
Song:            St. Patrick's Day
Artist:          John Mayer 
Album:           Room For Squares
Bass Played By:  David Labruyere

Tabbed By:       J. Isaac Friend
                 Send comments/corrections to: ersatzpoet@NOSPAM.yahoo.com


Bass Tablature

Section 1
G-------------------------------------
D-------------------------------------
A--7---7---3---4----------------------
E-----7------------6---5---5---4---3--

Section 2
G-------------
D-------------
A-------------
E--/4~~/5~~---

Section 3
G--------------------------------------------------------
D--------------------------------------------------------
A--7---7---6---2---5---5---4---4-6-8-9---11---7---9---0--
E-----7---------------5----------------------------------

Section 4
G---------
D---------
A--7---7--
E---------

Section 5
G-----------------
D-----------------
A----------0---2--
E--2---4----------

Section 6
G--------------------
D--------------------
A--7---------7-------
E-----7-0--7----7-0--

Section 7
G----------------------------------
D--------------------------5-------
A----------5---5-------5-------5---
E--5---5-----------3---------------

Section 8
G---------------------------------
D---------------------------------
A------------------3---3---5---5--
E--0---0---5---5------------------


Section 9
G-------------
D-------------
A--7----------
E------5---7--




St. Patrick's Day

(1)
here comes the cold
break out your winter clothes
and find a love to call your own

(1)
You, enter you
your cheeks a shade a pink
and the rest of you in powder blue

(2)
who knows
what will be

(tacit)
but I'll make you this guarantee
see

(3)
no way no November will see our goodbye
when it comes to December it's obvious why
no one wants to be alone at Christmas time

(4)

(1)
in the dark on the phone
you tell me the names of your brothers 
and your favorite colors
I'm learning you

(1)
and when it snows again
we'll take a walk outside
and search the sky like children do
I'll sing to you

(3)
no way November will see our goodbye
when it comes to December its obvious why
no one wants to be alone at Christmastime

(3)
come January we're frozen inside
making new resolutions a hundred times
February won't you be my valentine

(5)
and we'll both be safe until St. Patrick's Day 

(6)

(7)
we should take a ride tonight around the town 
and look around at all the beautiful houses

(7)
there's something in the way the blue lights 
on a black night can make you feel more

(8)
everybody it seems to me
just wants to be
just like you and

(3)
me
no one wants to be alone at Christmastime

(3)
come January we're frozen inside
making new resolutions a hundred times
February won't you be my valentine

(5)
if our always is all that we gave
and we someday take that away
I'll be alright if it was just 'til St. Patrick's day

(9)
comments
We did not receive enough feedback on this tab! Please rate:
print report bad tab
1 2 3 4 5
I want to post or [tab]
guest
You may want to rate the tab now too:
select rating
Please do not post tabs as comments. Select "correction" instead!