Oops, an error
Loading. Please wait.

Wait Till Tomorrow Tab

ver1
ver1

Solo

Whole song

More versions @911Tabs.com
31,842 views 45 this week
no commentswrite comment
1 2 3 4 5
excellent!
x 8
Autoscroll
+/-
esc
set tempo
stop
Contributor
Hey! There's an official Ultimate Guitar app which is ideal
for learning songs when you're away from computer. Get the app
WARNING: You are trying to view
                                    content from Ultimate-Guitar.com
                                    in an unauthorized application,
                                    which is prohibited.

                                    Please use an official Ultimate
                                    Guitar Tabs application for iPhone,
                                    iPad or Android to access legitimate
                                    chords, guitar, bass, and drum tabs
                                    from Ultimate-Guitar.com database.

                                    Type "ultimate guitar tabs" in Apple
                                    App Store's or Android Market's
                                    search to find the application.
JOHN MAYER- Wait untill tomorrow guitar solo
(2:42)
Where the Light is Version

e-----------------------------------------------------------|
B-----------------------------------------------------------|
G---14b--14b-14b~----14-12--14b14-12-14p12------------------|
D--------------------------------------------14p12--14~p12--|
A-----------------------------------------------------------|
E-----------------------------------------------------------|


e-------12------------12-------------------------------------------------------------|
B---15b----15-12-----------15--12------------------15-12-----------------------------|
G----------------14------------------15/14--12----------------15/14-12--------12b12--|
D-----------------------------------------------14-----------------------14----------|
A------------------------------------------------------------------------------------|
E------------------------------------------------------------------------------------|

e---------------------------------------------------------------------------------------|
B----------------------------------14-14p12~--------------------------------------------|
G------------------------14b12-----14-14p12~--------------------------------------------|
D--14p12---------------------------------------14p12-14p12------------------------------|
A--------14--12hp13------------------------------------------14-13p12-------------------|
E--------------------15------------------------------------------------15--12-----------|

e-----------------------------------------12-12-----12-12-----12-12-----12-12----12-12--|
B--14-14p12~---------------------------15b------15b-------15b-------15b------15b--------|
G--14-14p12~----------------------------------------------------------------------------|
D--------------14p12-14p12--------------------------------------------------------------|
A---------------------------14p12-------------------------------------------------------|
E---------------------------------------------------------------------------------------|


e-----12-12----12-12-----12-12----12-12---12-12-12-12-12-12----15b12--12---------------|
B--15b------15b-------15b------15b-----15b--------------------------------15p12--------|
G--------------------------------------------------------------------------------------|
D--------------------------------------------------------------------------------------|
A--------------------------------------------------------------------------------------|
E--------------------------------------------------------------------------------------|

e--------12----12--------------15b12--12-------------------------------------------------|
B------12---15-----12-15-12----------------15-12-------3---------------------------------|
G---14b--------------------------------------------2/4---4/2p0--2p0----------------------|
D-------------------------------------------------------------------2p0------------------|
A-------------------------------------------------------------------------0h1p0----------|
E-------------------------------------------------------------------------------3--------|


e-------------------------------------------------------------------------------------|
B-------------------------------------------------------------------------------------|
G-------------------------------------------------------------------------------------|
D--------------------------------------------------5/7-9-9-7-9-9-9p7-5----------------|
A--0h1p0----0h1p0------------5-5-7-7-5-7-7-5-7-7-5------------------------------------|
E--------3---------3--3--5/7----------------------------------------------------------|


e----------------------------------------------------------------------------------------|
B----------------------------------------------------------------------------------------|
G--------------------------------------11-11-12-12--15--15--16-16--19-19--21--21--21-----|
D---12-12-12-12-12-12-12-12-11-11-9-9--x--x--x--x---x---x---x--x---x--x---x---x---x------|
A---x--x--x--x--x--x--x--x--x--x--x-x--9--9--10-10--13--13--14-14--17-17--19--19--19-----|
E---10-10-10-10-10-10-10-10-9--9--7-7----------------------------------------------------|


e--------------------------------------------------------------------------------------|
B--------------------------------------------------------------------------------------|
G--21--21-21--21--21--21--21--21--21--21--21--21--21--21--21--21-----------------------|
D--x---x--x---x---x---x---x---x---x---x---x---x---x---x---x---x----(continue)----------|
A--19--19-19--19--19--19--19--19--19--19--19--19--19--19--19--19-----------------------|
E--------------------------------------------------------------------------------------|


e----------------------------------------------------------------------------------------|
B----------------19-19-19-19-19--------------------------------------15-15-15-15---------|
G---19-19-19-19--x--x--x--x--x---19-19-19-19-18-18-18-18-14-14-14-14-x--x--x--x----------|
D---x--x--x--x---16-16-16-16-16--x--x--x--x--x--x--x--x--x--x--x--x--12-12-12-12---------|
A---17-17-17-17------------------17-17-17-17-18-18-18-18-12-12-12-12---------------------|
E----------------------------------------------------------------------------------------|

e-------------------------------------------------------------------------------------|
B----------------------------19-19-19-19----------------------------------------------|
G--12-12-12-12--19-19-19-19--x--x--x--x----19-19-19-19--18-18-18-18---16--16--16--16--|
D--x--x--x--x---x--x--x--x---16-16-16-16---x--x--x--x----x--x--x--x---x---x---x---x---|
A--10-10-10-10--17-17-17-17-----------------17-17-17-17--16-16-16-16--14--14--14--14--|
E-------------------------------------------------------------------------------------|

e--------------------------------------------------------------|
B--17--17--17--17---------------/14-/14-/14-/14-/14-14/14-/14--|(as fast as you can)
G--x---x---x---x---12-14-14-14---------------------------------|
D--14--14--14--14----------------------------------------------|
A--------------------------------------------------------------|
E--------------------------------------------------------------|

e-----------------------------------------------------15--------------------------------|
B-------------------------------------------------15--15--------------------------------|
G---14b-14b-14b-14b~--14-12-14-12-------------14b-14b-14b--12-14b12--14-12--------------|
D---------------------------------14-12-14~~-------------------------------14-12-14-12--|
A---------------------------------------------------------------------------------------|
E---------------------------------------------------------------------------------------|

e----------------------------------------------12-------------12------12-14b(1/2)14--|
B--------------------15--15--15--15--15--15-------15-12----12----15------------------|
G--------------------14b-14b-14b-14b-14b-14b------------14---------------------------|
D------------------------------------------------------------------------------------|
A--14-12-14-12-----------------------------------------------------------------------|
E--------------15-12-----------------------------------------------------------------|

e--12--------------12---------------------------------------------------------------------|
B-----15-12-----------15-12---------------------------------------------------------------|
G-----------15-15b-----------15-14-12--14b(1.1/2)-12-14~~-14b14-15-14-12------------------|
D------------------------------------------------------------------------14-12------------|
A-----------------------------------------------------------------------------------------|
E------------------------------------------------------------------------------0--0-------|

e------------------------------------------------------|
B-------5-3--------------------------------------------|
G---2b------4p3p2p0------------------------------------|
D--------------------2p0-2p0---------------------------|
A-----------------------------2p1p0-1p0-------1p0------|
E----------------------------------------3p0------3p0--|

(Pick these notes as fast as you can again!)

e--16---14---12--10--9--7--9-----------------------------------------|
B--x----x----x---x---x--x--x-----------------------------------------|
G--16---14---13--11--9--7--9-----------------------------------------|
D--------------------------------------------------------------------|
A--------------------------------------------------------------------|
E-------------------------------0------------------------------------|


e--16---14---12--10--9--7--5--4--2-----------------------------------|
B--x----x----x---x---x--x--x--x--x-----------------------------------|
G--16---14---13--11--9--7--6--4--2-----------------------------------|
D--------------------------------------------------------------------|
A--------------------------------------------------------------------|
E----------------------------------------0---------------------------|

e--16---14---12--10--9--7--9--10--12---------------------------------|
B--x----x----x---x---x--x--x--x---x----------------------------------|
G--16---14---13--11--9--7--9--11--13---------------------------------|
D--------------------------------------------------------------------|
A--------------------------------------------------------------------|
E--------------------------------------0-----------------------------|


e--16---14---12--10--9--7--8-----------------------------------------|
B--x----x----x---x---x--x--x-----------------------------------------|
G--16---14---13--11--9--7--8-----------------------------------------|
D--------------------------------------------------------------------|
A--------------------------------------------------------------------|
E--------------------------------------------------------------------|
comments
print report bad tab
I want to post or [tab]
guest
You may want to rate the tab now too:
select rating
Please do not post tabs as comments. Select "correction" instead!