Oops, an error
Loading. Please wait.

Black Orpheus Tab

ver2
ver2

Whole song

More versions @911Tabs.com
633 views 3 this week
no commentswrite comment
1 2 3 4 5
please rate
Autoscroll
+/-
esc
set tempo
stop
Contributor
Difficulty
advanced
Hey! There's an official Ultimate Guitar app which is ideal
for learning songs when you're away from computer. Get the app
WARNING: You are trying to view
                                    content from Ultimate-Guitar.com
                                    in an unauthorized application,
                                    which is prohibited.

                                    Please use an official Ultimate
                                    Guitar Tabs application for iPhone,
                                    iPad or Android to access legitimate
                                    chords, guitar, bass, and drum tabs
                                    from Ultimate-Guitar.com database.

                                    Type "ultimate guitar tabs" in Apple
                                    App Store's or Android Market's
                                    search to find the application.
                       MANHA DE CARNAVAL (Black Orpheus)                         


JOHN MCLAUGHLIN,AL DI MEOLA
JOHN MCLAUGHLIN



     E  E  E  E  E  E  E  E     E  E  E  E  E  E  E  E   
E||--------------------------|--------0-----------------|
B||-----5--3--5--L--3--5-----|-----3-----3--L--L--------|
G||-----5--4--5--L--4--5-----|-----4-----4--L--L--1--L--|
D||--------------------------|--------------------------|
A||--0--L--L-----------------|--------------------------|
E||-----------3--L--L--L--L--|--1--L--L--0--L--L--L--0--|


  E  E  E  E  E  E  E  E     E  E  E  E  E  E  Q       Q.     Q.       E  S S  
--------------------------|--------0-----------0----|--8------8------8g7--5---|
-----5--3--5--L--3--5-----|-----3-----3--L--L-------|-------------------------|
-----5--4--5--L--4--5-----|-----2-----2--L--L-------|-------------------------|
--------------------------|-------------------------|-------------------------|
--0--L--L-----------------|-------------------------|-------------------------|
-----------3--L--L--L--L--|--1--L--L--0--L--L--L----|-------------------------|


  H.           S S S S    S S S S H        S S S X X X X  
--5------------L-4-7---|---------------------------------|
---------------------5-|--L-5---5-L--------L-------------|
-----------------------|---------------------5---7-5-4-5-|
-----------------------|---------------------------------|
-----------------------|---------------------------------|
-----------------------|---------------------------------|


  |-3-|    |--3--|                                                    
  S S S E  S S T T S S Q    S S  S S    S  S  E  S S S S Q.     S  S  
-------------------------------------|----10p-8--8---8---8------7p-5-|
----5-7-5--L---5---------------------|-------------------------------|
--7----------7---7-5-7-L----L-9-10-9-|-------------------------------|
-------------------------------------|-------------------------------|
-------------------------------------|-------------------------------|
-------------------------------------|-------------------------------|


  S E.  H        S E  S    E.  S S S S S S E.  Q       H        S E.  S S E   
----5---L--------L----7-|---------------------------|------------------------|
-------------------8----|------5---5---5---5---L----|--L----------5---L-6-8--|
------------------------|---------------------------|------------------------|
------------------------|---------------------------|------------------------|
------------------------|---------------------------|------------------------|
------------------------|---------------------------|------------------------|


  E  E  T  T  T  T  T  T  T  T Q    S S  E   
--5--5--5h-6p-5h-6p-5h-6p-5h-6-5----L-------|
--------------------------------------------|
--------------------------------------5S-7--|
--------------------------------------------|
--------------------------------------------|
--------------------------------------------|


  Q     S. T T T T T T T T T Q    S S    S S S S S S T   T  S Q.     E   
--------------------------------------|---------------------------------|
-------------6---8-6-----5--------5-6-|----8---8---8-8h-10p-8-L---------|
--7~----L--5---7-----7-6---7-L--------|------------------------------5--|
--------------------------------------|---------------------------------|
--------------------------------------|---------------------------------|
--------------------------------------|---------------------------------|


                                                           |-3-|      
  T  T  T  T Q.     Q    S S S S    S  T T Q.     Q    S T X X X S S  
---------------------------------|-------------------------4---4-----|
-------------------------------5-|--6p-5-8-6------L----L-6---6---6-5-|
--5h-7p-5S-4-5------L----L-5-7---|-----------------------------------|
---------------------------------|-----------------------------------|
---------------------------------|-----------------------------------|
---------------------------------|-----------------------------------|


                    |--3--|                              
  E  S S E  E  Q    E  E  E     S S S S H        S S E   
-----------------------------|--------------------------|
--6--5-6-L-------------------|--5---5---5--------L---5--|
------------4--L----L--5--7--|---------------------7----|
-----------------------------|--------------------------|
-----------------------------|--------------------------|
-----------------------------|--------------------------|


  |--3--|                                                
  S  S  S  E  Q.     Q    E     E  E  E  E  E  E  E  E   
---------------------0-------|--------------------------|
-----------------------------|--------1-----------3-----|
--7h-8p-7p-5--7--------------|-----------------1--------|
-----------------------------|-----2--------------------|
-----------------------------|--0--------0--2--------0--|
--------------------------0--|--------------------------|


  E  E  E  E  E  E  E  E     E  E  E  E  E  E  E  E   
--------0-----------------|--------------------------|
--------------------3-----|--------1-----------3-----|
-----2-----------1--------|-----------------1--------|
--------------------------|-----2--------------------|
--3--------3--2--------2--|--0--------0--2--------2--|
--------------------------|--------------------------|


     ^   ^  ^     ^              ^         ^              ^       ^           
  E  E   E  E  E  E  E  E     E  Q    Q    E  E  E     E  Q    E  Q    E  E   
-----0------0-----0--------|----------0-------0-----|------------------1-----|
---------------------------|-----3---------3--------|-----2-------2----------|
-----2S--1--1-----2--------|-----3---------3--------|-----3-------3----------|
---------------------------|-----2------------------|-----5-------5----------|
--3------2-----2-----------|------------------------|--0-------0-------------|
---------------------3--1--|--0------------------0--|---------------------0--|


                                                               ^                
  E  E  E  E  E  E  E  E     E  E   E  E  E  E  E  E     E  E  E  Q    Q    E   
--------------------------|------------0--------------|-----------5------------|
--------6-----------8-----|--------10-----------8-----|--------6---------------|
-----------------6--------|-----7------------6--------|--------5---------------|
-----7--------------------|---------------------------|-----7------------------|
--5--------0--7--------7--|--8------------7--------7--|--5---------------------|
--------------------------|---------------------------|----------------8----7--|


  ^           ^           ^                                        ^       
  Q.     Q    E  E  E     Q    E  E  E  E  E  E     E  E  E  E  E  Q.      
-----------------------|-------0-----------------|------------------------|
--6-----------6--------|--1-------1--------1-----|--------3--------0------|
--7-----------7--------|--2----------------------|-----2-----------2------|
--7-----------6--------|--2-------------2--------|-----------------1------|
--------------------0--|-------------------------|------------------------|
---------0-------------|-------------3--------3--|--2--------2--1---------|


       ^         ^       ^        ^    ^                                
  Q    Q.     E  Q       H        Q    Q       E  E  E  E  E  E  E  E   
----------------------|---------------------|--------------------------|
-------5---------5----|--5--------4----3----|-----5--3--5--L--3--5-----|
-------7---------7----|--7--------5----4----|-----5--4--5--L--4--5-----|
-------7---------7----|--6--------7----6----|--------------------------|
----------------------|---------------------|--0--L--L-----------------|
--0-----------0-------|--0--------0---------|-----------3--L--L--L--L--|


  E  E  E  E  Q    E  E     E  E  E  E  E  E  E  E     E  E  E  E  E  E  E  E   
--------0----------------|--------------------------|--------0-----------------|
-----3-----3--L----------|--------1-----------3-----|--------------------3-----|
-----2-----2--L----1--L--|-----------------1--------|-----2-----------1--------|
-------------------------|-----2--------------------|--------------------------|
-------------------------|--0--------0--2--------2--|--3--------3--2--------2--|
--1--L--L--0--L----L--0--|--------------------------|--------------------------|


                                            ^                                   
  E  E  E  E  E  E  E  E     E  E  E  E  E  Q    E     E  E  E  E  E  E  E  E   
--------------------------|--------0----------------|--------------------------|
--------1-----------3-----|-----------------3-------|--------1-----------3-----|
-----------------1--------|-----2-----------1-------|-----------------1--------|
-----2--------------------|-------------------------|-----2--------------------|
--0--------0--2--------2--|--3--------3--2----------|--0--------0--2--------2--|
--------------------------|----------------------0--|--------------------------|


                 ^                                           ^       ^         
  E  E  E  E  E  Q    E     E  E  E  E  E  E  E  E     Q     Q    E  E  E  E   
--------0--------0-------|--------------------------|-------------------------|
-------------------------|--------6-----------8-----|-------10-------8--------|
-----2-----------2-------|-----------------6--------|--------7-------6--------|
-------------------------|-----7--------------------|-------------------------|
--3--------3--4-------4--|--5--------5--7--------7--|--8-------------7-----5--|
-------------------------|--------------------------|-------------------------|


  ^                        ^       ^                 ^        ^            
  Q.     Q.     E    E     Q    E  E  E  E  E  E     E  E  E  E  H         
---------8------L-------|-------0--------0--------|-----------0--L--------|
--6---------------------|--1-------0--L-----0-----|-----------0--L--------|
--5---------------------|--2-------2--L-----------|--0--------0--L--------|
--7---------------------|--3-------3--L-----------|--2--------2--L--------|
------------------------|-------------------------|--3--------3--L--------|
-------------------5g3--|----------------------3--|-----------------------|


  ^      ^                     ^                                            
  Q.     E  Q.     E     E  E  E   E  Q.     E     E  E  E  E  E  E  E  E   
--0------0--L---------|--------1p--0--1---------|--------------------0-----|
--0------0--L---------|--------3------3---------|--------3--------3--------|
--2------2--L---------|-----2-------------------|-----2--------1-----------|
--3------3--L---------|-------------------------|--------------------------|
--3----------------3--|--2----------------------|--------------------------|
--1-------------------|----------------------1--|--0--------0-----------0--|


        ^        ^          ^     ^                 
  E  E  E  E  E  Q    E     S E.  E  E  Q    E  E   
-------------------------|----------------------0--|
--------1--------1-------|-------------------------|
--------2--------2-------|--2-----1----------------|
-----2-----------2-------|--1-----0----------------|
--0--------0-------------|-------------------------|
--------------3-------3--|--1-----0----------------|


  Q.     S S    Q.     S  S    S E.   H        S S E   
--8------8---10g8------7p-5-|--L-5~---L--------L-4-7--|
----------------------------|-------------------------|
----------------------------|-------------------------|
----------------------------|-------------------------|
----------------------------|-------------------------|
----------------------------|-------------------------|


                     |---3--|                               
  Q.     S S S S S S E  E   E     H.           S T  T  S S  
-------------------------------|---------------------------|
--5----------5-----------------|-----------------5h-6p-4-5-|
---------7-5---4-----4---------|---------------------------|
-----------------7-6-----------|---------------------------|
------------------------7S--6--|--7------------L-----------|
-------------------------------|---------------------------|


        |---3--|                                                  
  E  E  E   E  E  Q    S T  T  S S    E  Q.     Q    S T  T  S S  
-----6--6p--5--6--L----L-5h-7p-5---|-----------------------------|
--L------------------------------8-|-----8------L----L-6h-8p-6-5-|
-----------------------------------|-----------------------------|
-----------------------------------|-----------------------------|
-----------------------------------|-----------------------------|
-----------------------------------|-----------------------------|


  S E.  Q    T T T T T T T T T T T T E     Q    S  S E  H         
----5---L----L--------------------------|------------------------|
---------------6-5-8-6-----5------------|------------------------|
-----------------------7-6---7----------|------------------------|
-------------------------------7-6-8-7--|--L----5p-3-5--L--------|
----------------------------------------|------------------------|
----------------------------------------|------------------------|


  Q     Q      Q     E   E      S  E    S S  T   T   S   S  S  E.   Q     
----------------------------|--------------------------------------------|
----------------------------|-----12p--10---12h-13p-12p-10--L-12----L----|
---------------------9--10--|---L----------------------------------------|
-------12~----12~-----------|--------------------------------------------|
----------------------------|--------------------------------------------|
----------------------------|--------------------------------------------|


   Q     Q      Q      S S E     S  E.   Q     Q.     T   T  S  
------------------------------|--------------------------------|
--10--------------------------|----10----L-----L------9h-10p-9-|
-------------------------7-9--|--L-----------------------------|
--------10~----10~-----L------|--------------------------------|
------------------------------|--------------------------------|
------------------------------|--------------------------------|


  W                   Q    Q     Q     Q        H         E  E   E  E   
-------------------|------------------------|-----------------------7--|
--5----------------|-------5S----9----12----|--10---------L-----10-----|
-------------------|------------------------|----------------9---------|
-------------------|------------------------|--------------------------|
-------------------|------------------------|--------------------------|
-------------------|------------------------|--------------------------|


  Q.        E  Q    S S  S S    E   E   Q    Q    S S  S S  
--8------10g8--7----L------7-|--8--10p--8----7----L------7-|
------------------------10---|------------------------10---|
----------------------9------|----------------------9------|
-----------------------------|-----------------------------|
-----------------------------|-----------------------------|
-----------------------------|-----------------------------|


  |-----3----|    |-3-|  |--|   |-3|                          
  Q     Q    Q    E   S  S  E   E  Q        W                 
--8----10----8----7h--8p-7--------------|--------------------|
---------------------------10---L--8----|--10----------------|
----------------------------------------|--------------------|
----------------------------------------|--------------------|
----------------------------------------|--------------------|
----------------------------------------|--------------------|


   W                  
--------------------||
---L----------------||
--------------------||
--------------------||
--------------------||
--------------------||




Duration Legend
---------------
W - whole
H - half
Q - quarter
E - 8th
S - 16th
T - 32nd
X - 64th
. - note dotted
|-n-|  - n-tuplets


Tablature Legend
----------------
L - tied note
x - dead note
g - grace note
(n) - ghost note
> - accentuded note
NH - natural harmonic
AH - artificial harmonic
TH - tapped harmonic
SH - semi harmonic
PH - pitch harmonic
h - hammer on
p - pull off
b - bend
br - bendRelease
pb - preBend
pbr - preBendRelease
brb - bendReleaseBend
\n/ - tremolo bar dip
\n - tremolo bar dive
-/n - tremolo bar Release up
/n\ - tremolo bar inverted dip
/n - tremolo bar return
-\n - tremolo bar Release down
S - shift slide
s - legato slide
/ -  slide into from below or out of upwards
\ -  slide into from above or out of downwards
~ - vibrato
W - wide vibrato
tr - trill
TP - tremolo picking
T - tapping
S - slap
P - pop
< - fade in
^ - brush up
v - brush down
comments
We did not receive enough feedback on this tab! Please rate:
print report bad tab
1 2 3 4 5
I want to post or [tab]
guest
You may want to rate the tab now too:
select rating
Please do not post tabs as comments. Select "correction" instead!