Oops, an error
Loading. Please wait.

Lost Without You Tab

ver1
ver1

Whole song

Interactive

More versions @911Tabs.com
22,903 views 45 this week
no commentswrite comment
1 2 3 4 5
excellent!
x 5
Autoscroll
+/-
esc
set tempo
stop
Contributor
Difficulty
advanced
Hey! There's an official Ultimate Guitar app which is ideal
for learning songs when you're away from computer. Get the app
WARNING: You are trying to view
                                    content from Ultimate-Guitar.com
                                    in an unauthorized application,
                                    which is prohibited.

                                    Please use an official Ultimate
                                    Guitar Tabs application for iPhone,
                                    iPad or Android to access legitimate
                                    chords, guitar, bass, and drum tabs
                                    from Ultimate-Guitar.com database.

                                    Type "ultimate guitar tabs" in Apple
                                    App Store's or Android Market's
                                    search to find the application.
Gtr I (E A D G B E) - 'Clean'
Gtr II (E A D G B E) - 'Distorted [Lead]'
Gtr III (E A D G B E) - 'Distorted [Left]'
Gtr IV (E A D G B E) - 'Distorted [Right]'
Gtr V (E A D G B E) - 'Distorted [Centre]'


 Intro
  Slowly Q=60
            Gmadd9
 4/4
  Gtr II
                                   |-3--|                            |---3----|
  W              H.           S S  S S  S    S  S  E  +Q     +Q     +E   E    e
|--------------|--------------------------|-------------------------------------|
|--------------|--------------------------|-------------------------------------|
|--------------|--------------------------|-----------------------------10h==12-|
|--------------|---------------------8-10-|-12-11s12-(12)---(12)---(12)---------|
|--------------|----------------9s10------|-------------------------------------|
|--------------|--------------------------|-------------------------------------|
|
| Gtr I
| H    Q.    E   E  E E E E E E    E         Q         E  E   E  E   E     E
|-----------!3-|--------------------------|-------------------------------------|
|-----------!3-|--------------------------|-------------------------------------|
|-----------!3-|------3---3---3-----------|--3---------3------3------3----------|
|-----------!7-|------7---7---7-----------|--7---------7------7------7----------|
|-----------!5-|----5---------------------|-------------------------------------|
|--------------|-3------3---3------3------|--3------------3------3---------3----|


  Fadd9
                           |-3--| |--3---|
   T  T S  E  +Q     +E.   T  T T E E    E
|------------------------------------------|
|------------------------------------------|
|------------------------------------------|
|-11p10p8-10-(10)---(10)---8h10p8p7h8---10-|
|------------------------------------------|
|------------------------------------------|
|
|  E       E   E  E   E  E        E   E
|------------------------------------------|
|------------------------------------------|
|--2-----------2------2-----------2--------|
|--5-----------5------5-----------5--------|
|----------3-------------------------------|
|--1--------------1------1------------1----|


     Gmadd9
         |--3--|
   S  S  T  T  T  S  +Q     +Q.     S a  T T
|--------------------------------------------|
|--------------------------------------------|
|--------------------------------------------|
|--------------------------------------------|
|-10s12-13p12p10h12-(12)---(12)-------8s10s8s|
|--------------------------------------------|
|
|  E     E            E  E   E  E E E
|--------------------------------------------|
|--------------------------------------------|
|--3------------------3------3----3----------|
|--7------------------7------7----7----------|
|--------5-----------------------------------|
|--3---------------------3------3---3--------|


  Fadd9                                  Gmadd9
                                                              ~~~~~~~~
                       |--3--|                   |--3--|
   S E.   +Q    +E.    T  T  T   Q       Q       S S E e  S   E.  +E   +S  S
|---------------------15---------------|--------------------------------------|
|------------------------15------------|---------------8--8s=10--(10)-(10)s8--|
|---------------------------15---------|-----------6s7------------------------|
|--------------------------------------|--------------------------------------|
|-10-8----(8)---(8)--------------------|--------------------------------------|
|------------------------------(15)\---|--------------------------------------|
|
|  E    E  E  E  E  E            E   E   S S S S Q       +H
|--------------------------------------|--------------------------------------|
|--------------------------------------|---------3-------(3)------------------|
|--2-------2-----2---------------2-----|-------3------------------------------|
|--5-------5-----5---------------5-----|-----7--------------------------------|
|--------------------------------------|---5----------------------------------|
|--1----1-----1-----1----------------1-|-3------------------------------------|


    Fadd9                       Gmadd9
    ~           ~~~~~~~                              ~~~~~~~~~~
                                        |--3--|
  a Q       +S  E. +Q.   +E     Q       S S E e  S   E.    +E     +T   S.
|-----------------------------|---------------------------------------------|
|-----------------------------|---------------8--8s=10----(10)---(10)h11----|
|-5s7-------(7)s5--(5)---(5)\-|-----------6s7-------------------------------|
|-----------------------------|---------------------------------------------|
|-----------------------------|---------------------------------------------|
|-----------------------------|---------------------------------------------|
|
|   S S S S  Q     +H           S S S S Q       +E.     S   S  S   S      S
|-----------------------------|---------------------------------------------|
|------------1-----(1)--------|---------3-------(3)---------3---------------|
|---------2-------------------|-------3------------------------3------------|
|-------5---------------------|-----7------------------------------7--------|
|-----3-----------------------|---5---------------------------------------5-|
|---1-------------------------|-3-----------------------3-------------------|


     Fadd9
      ~~           ~~~~~~~~
                                 |-3--|
   a  E    +S   S  Q   +Q.       T  T T S
|-------------------------------------------|
|-------------------------------------------|
|-10s12---(12)s10-10--(10)-------8h10p8p7---|
|-------------------------------------------|
|-------------------------------------------|
|-------------------------------------------|
|
|     S S   S   S  Q   +E. S S S S      S
|-------------------------------------------|
|------------------1---(1)---1--------------|
|---------------2--------------2------------|
|-----------5--------------------5----------|
|-------3-------------------------------3---|
|-----1--------------------1----------------|


  Cm7                              Dm7
            ~~~~~~~~~~                     ~~~~~~~~~~~
    Q    a  Q     +Q.       T S.      Q    Q      +E  E     a      +Q
|--------------------------------|----------------------------------------------|
|-------10s11----(11)------------|--------13-----(13)------13b15==(13)----------|
|---8-------------------------8--|---10-----------------------------------------|
|--------------------------------|----------------------------------------------|
|--------------------------------|----------------------------------------------|
|--------------------------------|----------------------------------------------|
|
|   Q.         E  +E. S S S E         Q.       E  +E.    S          S   S  S  S
|--------------------------------|----------------------------------8-----------|
|-^(8)--------^8--(8)---8--------|-^(10)-----^10-(10)------------------10-------|
|-^-8---------^8--(8)-----8------|-^-10------^10-(10)---------------------10----|
|-^-8---------^8--(8)-------8----|-^-10------^10-(10)------------------------10-|
|--------------------------------|----------------------------------------------|
|-^-8-----------------8----------|-^-10-----------------10----------------------|


  Gm11
                            ~~~
   +Q         +S   S  s  S  E.  +S    a  E     S  S
|---------------------------------------------------|
|-(13)r======(13)-11s13-13-11--(11)\----------------|
|------------------------------------11s14----13-12-|
|---------------------------------------------------|
|---------------------------------------------------|
|---------------------------------------------------|
|
|   S  S S S  +Q           +Q            S E.
|---------------------------------------^5p3--------|
|----------1--(1)----------(1)----------^3----------|
|--------3------------------------------^3----------|
|------3--------------------------------------------|
|---------------------------------------------------|
|---3-----------------------------------------------|


  Em7b5                              Ebm7
   ~~~              ~~~               ~~
          |--3---|                                                  |------3------|
   Q.    +S   S  S  Q     +E     E    Q   Q    +E   +E   S  S      +S   +S       +S
|----------------------------------|-------------------------------------------------|
|----------------------------------|-------------------------------------------------|
|-11----(11)-12h14-----------------|-----11---(11)-(11)\-----------------------------|
|------------------12----(12)\-----|-11--------------------10b11==(10)r(10)b11==(10)r|
|----------------------------------|-------------------------------------------------|
|----------------------------------|-------------------------------------------------|
|
|  H               +E. S   S   S E    Q   E E   H
|----------------------------------|-------------------------------------------------|
|-^8---------------(8)-----8-------|-^7-------^-7------------------------------------|
|-^7---------------(7)---------7---|-^6---6---^-6------------------------------------|
|-^8---------------(8)-----------8-|-^8-------^-8------------------------------------|
|-^7---------------(7)-7-----------|-^6-----6----------------------------------------|
|----------------------------------|-------------------------------------------------|


  D9             D7b9          D7
            ~~~
                                 |--3---|
   +E  E S  E.    +E  E  a      +e    e e
|------------------------------------------|
|------------------------------------------|
|--------9s11----(11)----------------------|
|-(10)------------------10b12==(10)r-10-8--|
|------------------------------------------|
|------------------------------------------|
|
|   Q    E     E   Q             Q
|------------------------------------------|
|-^-5----------5-^-4-------------3---------|
|-^-5------------^-5-----------------------|
|-^-4------------^-4-----------------------|
|-^-5----5-------^-5-----------------------|
|------------------------------------------|


  Gmadd9                                         Cmadd9
                                                            ~~~~~~~         ~~~~~~~
              |--3--|                              |---3----|                                 |--3---|
   s  a  E    T  T  T  Q    +E   +E    E  S  S     e  S  S  E  +S    S   a  E  +Q     a   E  +S   S  S
|----------------------------------------------|-------------------------------------------------------|
|----------------------------------------------|--------------------11--10h11-(11)---------------------|
|----------------------------------------------|-------------------(10)--------------------------------|
|-10----------------------------------------10-|--12-13p12-13-(13)-------------------12h=13-(13)p12p10-|
|----10s12h==13p12p10h12---(12)-(12)\----10----|-------------------------------------------------------|
|----------------------------------------------|-------------------------------------------------------|
|
|  E       E           E E   E    E    E  E        E     E      E           E   E  E      E   E
|----------------------------------------------|-------------------------------------------------------|
|----------------------------------------------|-------------------------------------------------------|
|-^3------------------^3---^-3--------^3-------|-^-8----------^-8-------------^-8-------^-8------------|
|-^7------------------^7---^-7--------^7-------|-^12----------^12-------------^12-------^12------------|
|-^5------------------^5-5-^-5--------^5--5----|-^10----------^10----------10-^10-------^10--10--------|
|-^3-------3---------------^-3----3------------|-^-8-----8--------------------^-8--8-------------------|


  Gmadd9
                                 ~~~
   E.    S  a  S  T  T  S  S  a  Q.       +E
|-----------------------------------------------|
|-----------------------------------------------|
|-------14-12h14h15p14p12-14-12h14-------(14)\--|
|-12--------------------------------------------|
|-----------------------------------------------|
|-----------------------------------------------|
|
|  E  E        E        E        E  E  E   E
|-----------------------------------------------|
|-----------------------------------------------|
|-^3----------^3----------------^3----^3--------|
|-^7----------^7----------------^7----^7--------|
|-^5----------^5--------5-------^5----^5---5----|
|-^3--3-------------------------^3--3-----------|


  Cm/A                              A°7
                                                     |----6----| |--3--|
   T T T T T T T T T T T T T  T T T  T T  S     +E   T T T T T T T  T  T  X  X  X   X
|---------------------------------8-11-8-10b11r(10)\------------------------------h10-||
|--------------------------7-10-8----------------------8p6---------------10h11h13-----||
|--------------------5-8-7---------------------------------8p7h8p7s11-12--------------||
|--------------4-7-5------------------------------------------------------------------||
|--------3-6-5------------------------------------------------------------------------||
|--2-5-3------------------------------------------------------------------------------||
|
|  Q               S   S   S    S    H
|-------------------------------------------------------------------------------------||
|-^4----------------------------4---^4------------------------------------------------||
|-^5-----------------------5--------^5------------------------------------------------||
|-^5-------------------5------------^4------------------------------------------------||
|-^0---------------0----------------^0------------------------------------------------||
|-------------------------------------------------------------------------------------||


 Guitar Solo #1
         Gsus2
                  ~~~~~~~~~~
   a      +E.  S  Q    +Q    S  a      +S   +S   +T   T
|-------------13------------------------------------------|
|-13b15==(13)----13---(13)r----13b15==(13)-(13)r(13)p11---|
|---------------------------------------------------------|
|---------------------------------------------------------|
|---------------------------------------------------------|
|---------------------------------------------------------|
|
|          E.  S  E E  +Q    E               E
|---------------------------------------------------------|
|---------------------------------------------------------|
|---------------------------------------------------------|
|-------------------7--(7)---7---------------x------------|
|----------5---5----5--(5)---5---------------x------------|
|----------3---3----3--(3)---3---------------x------------|


  Fsus2                                       Gsus2
   ~~~~~~~~~~~~~~                                          ~~~~~~~~~~
   H         +E. S  a      +S   +S   +S   S    s   S      +E     +S   +S   +S   T  T  T   T  T  T  T  T  T T T  T T T  T  T  T  T
|-------------------------------------------|----------------------------------------10--13p10------------------------------------|
|-13--------(13)-x-11b13==(11)-(11)r(11)-10-|-11--10b11==(10)---(10)-(10)r(10)-10h11-----------11p10------------------------------|
|-------------------------------------------|--------------------------------------------------------12s10-7--------7-10s14-10----|
|-------------------------------------------|----------------------------------------------------------------8--7h8------------12-|
|-------------------------------------------|-------------------------------------------------------------------------------------|
|-------------------------------------------|-------------------------------------------------------------------------------------|
|
|  E. S E E  +Q             E         S   S    E.             S   E         E        +Q                      E.              S
|-------------------------------------------|-------------------------------------------------------------------------------------|
|-------------------------------------------|-------------------------------------------------------------------------------------|
|-------------------------------------------|-------------------------------------------------------------------------------------|
|--5------5--(5)----------------------------|-----------------7-------------7--------(7)---------------------7---------------x----|
|--3--3---3--(3)------------3---------x---x-|--5--------------5-------------5--------(5)---------------------5---------------x----|
|--1--1---1--(1)------------1---------x---x-|--3--------------3-------------3--------(3)---------------------3---------------x----|


  Fsus2
             ~
                       |-3-| |------6------|
   E   +S  S Q   +E    S S S S S  S  S  S  S
|-----------------------------------------10-|
|-----------------------------------10-11----|
|----------------------------7-8-10----------|
|-10--(10)s7-7---(7)\----7-8-----------------|
|---------------------/7---------------------|
|--------------------------------------------|
|
|  E.      S E E +Q          q
|--------------------------------------------|
|--------------------------------------------|
|--------------------------------------------|
|--------------5-(5)-------------------------|
|--3-------3---3-(3)---------3---------------|
|--1-------1---1-(1)---------1---------------|


  Cm7
   ~~~
                                                  |--------7--------|  |-----5-----|  |-----5-----|  |-----5-----|
   E.  T  T  T  T  T  T  T  T  T  T  T   T  T  T  T  T  T  T  T  T  T  X  X  X  X  X  X  X  X  X  X  X  X  X  X  X  X  X  X  X
|-11--20p15-------18p15-17p15--------------------------------------15-17h18p17p15h17-18h20p18p17h18-20h22p20p18p17-18h20p18p17---|
|-----------16-15-------------18-17-16--15----------------15h16h18---------------------------------------------------------------|
|------------------------------------------17-15-14h15h17------------------------------------------------------------------------|
|--------------------------------------------------------------------------------------------------------------------------------|
|--------------------------------------------------------------------------------------------------------------------------------|
|--------------------------------------------------------------------------------------------------------------------------------|
|
|            PM---|
|  Q         S     S     E          +Q                                 S              S              S              S
|--------------------------------------------------------------------------------------------------------------------------------|
|------------------------8----------(8)------------------------------------------------------------------------------------------|
|------------------------8----------(8)-----------------------------------------------8------------------------------------------|
|------------------------8----------(8)-----------------------------------------------8------------------------------------------|
|----------------------------------------------------------------------------------------------------x--------------x------------|
|--8---------8-----8---------------------------------------------------8-----------------------------x--------------x------------|


  Dm7
                                ~~~
   E      T  T  T  T  T  T  S   E   T   T  T  T  T  T   T    T  S  S   T  T  T  T
|-22-----17-22-17-----------------------------------------------------------------|
|-----------------18--------------------------------------------------------------|
|--------------------19-17s10-/17--10--14p10--------------------------17p15-------|
|--------------------------------------------12-10----------------15--------17-15-|
|--------------------------------------------------12--10-------------------17----|
|-----------------------------------------------------------13-10-----------------|
|
|                     PM---|
|  S  E.              S     S   E  +E.                 +S       S  E.
|---------------------------------------------------------------------------------|
|------------------------------10-(10)----------------(10)\-----------------------|
|------------------------------10-(10)----------------(10)\-----------------------|
|------------------------------10-(10)----------------(10)\-----------------------|
|----12---------------------------------------------------------5-----------------|
|-10-----------------10----10--------------------------------------6--------------|


  Gm7
   ~~~
                |---3---|
   E   +S   S   S  S    S  S        +S    T   T  T  T  S  T  T  T  T  T  T  T  T  T  T
|--------------------------------------------------------------------------------------|
|--------------------------------------------------------------------------------------|
|-------------------------15b15.5==(15)r-----------------------------------------------|
|-17--(17)\-5/-15-16---17----------------17p=15-------17-------------------------15----|
|-----------------------------------------------17p15----15p13-------------15s17----17-|
|--------------------------------------------------------------15-13-15-15-------------|
|
|               PM---|
|  E.       S   S    S     E             +Q                     E           S     S
|--------------------------------------------------------------------------------------|
|--------------------------3-------------(3)-------------------------------------------|
|--------------------------3-------------(3)-------------------------------------------|
|--------------------------3-------------(3)-------------------------------------------|
|--------------------------------------------------------------------------------------|
|--3--------3---3----3------------------------------------------3-----------2-----1----|


  Em7b5
   ~~                      ~~~
           |-3--| |--3--|
   E  +E   S S  S S  S  S  Q.        +S   S
|-------------------------------------------|
|-----------------8-10-11-----------------x-|
|-------------------------11--------(11)\-x-|
|----------0-8-12-------------------------x-|
|-13-(13)\----------------------------------|
|-------------------------------------------|
|
|                              Gtrs III, IV
|  E   E   E      E        Q     E.       S
|-------------------------------------------|
|--------------------------8----------------|
|-----------------7-------------------------|
|----------8--------------------------------|
|------7------------------------------------|
|--0---------------------------/15\-------x-|


         Eb7+9
           ~~~~~         ~~                   ~~
                |--3--|       |--3--|  |---------6----------|     |--3---|
   a      +E    S  S  S  E    S  S  S  S   S  E  S  a      +S     S   S  S  a      +E
|--------------11-12-13-14---11-14-11-15--11-14-11---------------11--------20b21==(20)--|
|-14b16==(14)r-------------------------------------14b16==(14)r------14-11--------------|
|---------------------------------------------------------------------------------------|
|---------------------------------------------------------------------------------------|
|---------------------------------------------------------------------------------------|
|---------------------------------------------------------------------------------------|
|
|          Q             S S  E       +Q                          Q
|---------------------------------------------------------------------------------------|
|----------7-------------x-x--7-------(7)-----------------------------------------------|
|----------6-------------x-x--6-------(6)-----------------------------------------------|
|----------5-------------x-x--5-------(5)-----------------------------------------------|
|----------6-------------x-x--6-------(6)-----------------------/15\--------------------|
|---------------------------------------------------------------------------------------|


  D9
                ~~~~~~~~~~~
                                          |----3-----|
   +S   +E   S  Q      +E.  T  T  a      +E       e  e
|-(20)r(20)--------------------------------------------|
|-----------15-15-----(15)-17-15-17b19==(17)r----17-15-|
|------------------------------------------------------|
|------------------------------------------------------|
|------------------------------------------------------|
|------------------------------------------------------|
|
|                                             ~~
|   Q           S S E  +Q                 S   E.
|------------------------------------------------------|
|---5-----------x-x-5--(5)-----------------------------|
|---5-----------x-x-5--(5)-----------------------------|
|---4-----------x-x-4--(4)-----------------------------|
|---5-----------x-x-5--(5)----------------3------------|
|---------------------------------------------6--------|


         G5
                        ~~~~~~~~~                               ~~~~~~~~~
                                  |--3--|                                    |--3--|
   a      +S    a      +E.  +S    T  T  T  a      +S    a      +S   +T    T  T  T  T      +S    T      +T    T  T  T  T     +T   T  T  T
|--------------------------------15--------------------------------------15-------18b20==(18)r-18b20==(18)r-15---------------------------|
|-18b20==(18)r-18b20==(18)-(18)r----18-15-18b20==(18)r-18b20==(18)-(18)r----18-15------------------------------18-15---------------------|
|--------------------------------------------------------------------------------------------------------------------17b18r(17)-15-------|
|----------------------------------------------------------------------------------------------------------------------------------17-15-|
|----------------------------------------------------------------------------------------------------------------------------------------|
|----------------------------------------------------------------------------------------------------------------------------------------|
|
|          Q.                                      E                +H
|----------3---------------------------------------3----------------(3)------------------------------------------------------------------|
|----------3---------------------------------------3----------------(3)------------------------------------------------------------------|
|----------0---------------------------------------0----------------(0)------------------------------------------------------------------|
|----------0---------------------------------------0----------------(0)------------------------------------------------------------------|
|----------------------------------------------------------------------------------------------------------------------------------------|
|----------3---------------------------------------3----------------(3)------------------------------------------------------------------|


  C5
                                                                        ~~~                      ~~~
                            |-----3------|
   T  T  T  T  a      +s    T      +T   +T   T  T  T  T  X  X  T  T  T  E.  T  T  T  T  T  X  X  S.  T
|------------------------------------------------------------------------------------------------------|
|------------------------------------------------------------------------------------------------------|
|-------------17b19==(17)r-15b17==(15)r(15)--------------------------------------------15h16p15--------|
|-17p15-------------------------------------17-15----------------------17--------15-17----------17--15-|
|-------17-15-------------------------------------17-16-15h16p15-----------15h17-----------------------|
|----------------------------------------------------------------18-15---------------------------------|
|
|                                            PM---|                                     ~~~
|  Q                                         S     S     E             +Q         S     E.
|------------------------------------------------------------------------------------------------------|
|------------------------------------------------------------------------------------------------------|
|--5-----------------------------------------------------5-------------(5)-----------------------------|
|--5-----------------------------------------------------5-------------(5)-----------------------------|
|--3-----------------------------------------3-----3-----3-------------(3)--------3--------------------|
|---------------------------------------------------------------------------------------6--------------|


  G5                                                                                                                                                                 Bb5
                                                       |----------5----------|    |----------5-----------|  |-----------------7-----------------|    |------------6------------|  |--3--|
   S     +T   T  T  T  S     +T   T  T      T  a      +T    T  T  T  a      +T    T   T  T  a      +T    T  T  T  a      +T    T  T  T  a      +T    T   T  T  a      +T    T  T  T  T  T  a      +S
|----------------------------------------------------------15--------------------15---------------------15--------------------15--------------------15---------------------15-------------18b20==(18)---|
|-------------------------------------------------------------18p15------------------18p15-----------------18p15-----------------18p15------------------18p15-----------------18p15---------------------|
|-17b18r(17)p15-------17b18r(17)p15-----------17b19==(17)r----------17b19==(17)r-----------17b19==(17)r----------17b19==(17)r----------17b19==(17)r-----------17b19==(17)r----------18p15---------------|
|-17b18r(17)----17p15-17b18r(17)----17p====15-----------------------------------------------------------------------------------------------------------------------------------------------------------|
|-------------------------------------------------------------------------------------------------------------------------------------------------------------------------------------------------------|
|-------------------------------------------------------------------------------------------------------------------------------------------------------------------------------------------------------|
|
|  Q                         +S      S                 E                         +Q                                                                 +S                 E.
|--3-------------------------(3)------------------------------------------------------------------------------------------------------------------------------------------------------------------------|
|--3-------------------------(3)------------------------------------------------------------------------------------------------------------------------------------------------------------------------|
|--0-------------------------(0)-----------------------0-------------------------(0)----------------------------------------------------------------(0)----------------3--------------------------------|
|--0-------------------------(0)-----------------------0-------------------------(0)----------------------------------------------------------------(0)----------------3--------------------------------|
|----------------------------------------------------------------------------------------------------------------------------------------------------------------------1--------------------------------|
|--3-------------------------(3)-----1b1.5-------------3-------------------------(3)----------------------------------------------------------------(3)-------------------------------------------------|


  C5                                                                                    Bb5
                       ~~~~~~~                                                   ~~~~~~~
   +E   +T       +T    S  +S   T  a      +T    T  T  T  a      +T    T  T  T  T  E  +S.     +T    a      +S   +S
|-(18)-(18)b22==(18)r---------15--------------15--------------------15--------------------------------------------||
|--------------------------------18b20==(18)r----15h18-------------------------------------------18b20==(18)r(18)-||
|---------------------17-(17)--------------------------17b19==(17)r----15h17----15-(15)----(15)\------------------||
|----------------------------------------------------------------------------17-----------------------------------||
|-----------------------------------------------------------------------------------------------------------------||
|-----------------------------------------------------------------------------------------------------------------||
|
|                                                    PM
|   Q                     +E.                        S               E           E   S  E.
|-----------------------------------------------------------------------------------------------------------------||
|-----------------------------------------------------------------------------------------------------------------||
|---5---------------------(5)----------------------------------------5-----------5---5--3-------------------------||
|---5---------------------(5)----------------------------------------5-----------5---5--3-------------------------||
|---3---------------------(3)------------------------3---------------3-----------3---3--1-------------------------||
|-----------------------------------------------------------------------------------------------------------------||


 Interlude
  Eb             Ebsus4    Eb        Bb
  Gtr II
   ~~
   W
|--------------------------------------|
|-16-----------------------------------|
|--------------------------------------|
|--------------------------------------|
|--------------------------------------|
|--------------------------------------|
|
| Gtrs III, IV
|                   >
|  H               +H
|--------------------------------------|
|--------------------------------------|
|--8---------------(8)-----------------|
|--8---------------(8)-----------------|
|--6---------------(6)-----------------|
|--------------------------------------|
|
| Gtr V
|  E S S +S  S S S +S  S S S +S  S S S
|------3-(3)-----4-(4)-----3-(3)-----1-|
|--------------------------------------|
|----3-------3---------3---------3-----|
|--1-----------1---------1---------1---|
|--------------------------------------|
|--------------------------------------|


                               Bbsus4
    >
   +H                   H
|----------------------------------------------|
|-(16)-----------------------------------------|
|----------------------------------------------|
|----------------------------------------------|
|----------------------------------------------|
|----------------------------------------------|
|
|   <
|   H                   E.       S   +S    E.
|--13------------------10-------11--(11)--13---|
|--11------------------11------(11)-(11)-(11)--|
|----------------------------------------------|
|----------------------------------------------|
|----------------------------------------------|
|----------------------------------------------|
|
|  +S  S S S +S  S S S +S  S S   S   +S    E.
|--(1)-----1-(1)---------------------------1---|
|--------------------3-(3)-------4---(4)-------|
|------3---------3---------3-------------------|
|----------------------------------------------|
|--------1---------1---------1-----------------|
|----------------------------------------------|


  Eb             Ebsus4     Eb         Bb
   W
|----------------------------------------|
|----------------------------------------|
|----------------------------------------|
|----------------------------------------|
|----------------------------------------|
|----------------------------------------|
|
|  H                 Q          Q
|-15----------------16---------15--------|
|-16---------------(16)-------(16)-------|
|----------------------------------------|
|----------------------------------------|
|----------------------------------------|
|----------------------------------------|
|
|  E S S +S  S S S  +S  S S S  +S  S S S
|------3-(3)-----4--(4)-----3--(3)-----1-|
|----------------------------------------|
|----3-------3----------3----------3-----|
|--1-----------1----------1----------1---|
|----------------------------------------|
|----------------------------------------|


                                Bbsus4
    H.                                 S    E.
|-----------------------------------------------||
|-----------------------------------------------||
|-----------------------------------------------||
|-----------------------------------------------||
|-----------------------------------------------||
|------------------------------------------18\--||
|
|   H                    E.       S   +S    E.
|--13-------------------10-------11--(11)--13---||
|-\11------------------(11)-----(11)-(11)-(11)--||
|-----------------------------------------------||
|-----------------------------------------------||
|-----------------------------------------------||
|-----------------------------------------------||
|
|  +S  S S S +S  S S S  +S  S S   S   +S    E.
|--(1)-----1-(1)----------------------------1---||
|--------------------3--(3)-------4---(4)-------||
|------3---------3----------3-------------------||
|-----------------------------------------------||
|--------1---------1----------1-----------------||
|-----------------------------------------------||


 Guitar Solo #2
  Eb             Ebsus4     Eb            Bb
   ~~~~~~~~~~        ~~~~                  ~~~
   Q     +S  S S S   E.      S  +S   S  S  S
|--------------------------------------------|
|--------------------------------------------|
|--------------------8------10-(10)s12-13-10-|
|------------8---8---------------------------|
|--6-----(6)---6-----------------------------|
|--------------------------------------------|
|
|  H                 Q           Q
|-15----------------16----------15-----------|
|-16---------------(16)--------(16)----------|
|--------------------------------------------|
|--------------------------------------------|
|--------------------------------------------|
|--------------------------------------------|
|
|  E S S +S  S S S  +S  S S  S  +S   S  S  S
|------3-(3)-----4--(4)------3--(3)--------1-|
|--------------------------------------------|
|----3-------3----------3------------3-------|
|--1-----------1----------1-------------1----|
|--------------------------------------------|
|--------------------------------------------|


                                                Bbsus4
 ~~~~~~~~~~~~~~~~~
   +Q         +S   S     +S   S   E.      a      +S   +S   +S   S  S
|---------------------------------------------------------------------|
|-----------------15b16r(15)------------------------------------------|
|-(10)-------(10)------------15--15------15b17==(15)-(15)r(15)--------|
|--------------------------------------------------------------18-17--|
|---------------------------------------------------------------------|
|---------------------------------------------------------------------|
|
|   H                             E.              S   +S    E.
|--13----------------------------10--------------11--(11)--13---------|
|-\11---------------------------(11)------------(11)-(11)-(11)--------|
|---------------------------------------------------------------------|
|---------------------------------------------------------------------|
|---------------------------------------------------------------------|
|---------------------------------------------------------------------|
|
|  +S  S S S  +S   S      S   S  +S  S S          S   +S    E.
|--(1)-----1--(1)-------------------------------------------1---------|
|-----------------------------3--(3)--------------4---(4)-------------|
|------3-----------3-----------------3--------------------------------|
|---------------------------------------------------------------------|
|--------1----------------1------------1------------------------------|
|---------------------------------------------------------------------|


  Eb                         Ebsus4        Eb            Bb
    ~~~~                                               ~~~~~
            |---------6---------|
   +Q       S   S    S  S  S    S   E.      S   S   S  E
|----------------------------------------------15--16------|
|----------------------------------16------18---------18---|
|----------------------15-17---19--------------------------|
|-(17)-----15--17---18-------------------------------------|
|----------------------------------------------------------|
|----------------------------------------------------------|
|
|   H                               Q           Q
|--15------------------------------16----------15----------|
|--16-----------------------------(16)--------(16)---------|
|----------------------------------------------------------|
|----------------------------------------------------------|
|----------------------------------------------------------|
|----------------------------------------------------------|
|
|   E  S S +S     S     S    S     +S  S S  S  +S   S  S S
|--------3-(3)---------------4-----(4)------3--(3)-------1-|
|----------------------------------------------------------|
|------3----------3--------------------3------------3------|
|---1-------------------1----------------1-------------1---|
|----------------------------------------------------------|
|----------------------------------------------------------|


                                           Bbsus4
 ~~~~~~~~~~~~~~~~~       ~~~~~~~                              ~~
   +Q         +S   S  S  S  +E.      a      +S   +S   +S   S  S
|-----------------------18-(18)-----18b20==(18)-(18)r(18)-16-15--|
|-(18)-------(18)-16-15------------------------------------------|
|----------------------------------------------------------------|
|----------------------------------------------------------------|
|----------------------------------------------------------------|
|----------------------------------------------------------------|
|
|   H                        E.              S   +S    E.
|--13-----------------------10--------------11--(11)--13---------|
|-\11----------------------(11)------------(11)-(11)-(11)--------|
|----------------------------------------------------------------|
|----------------------------------------------------------------|
|----------------------------------------------------------------|
|----------------------------------------------------------------|
|
|  +S  S S S  +S   S  S  S  +S  S S          S   +S    E.
|--(1)-----1--(1)--------------------------------------1---------|
|------------------------3--(3)--------------4---(4)-------------|
|------3-----------3------------3--------------------------------|
|----------------------------------------------------------------|
|--------1------------1-----------1------------------------------|
|----------------------------------------------------------------|


  Eb/G                           Absus2
    ~~~~~~~~~~~~                                 ~~~~~~~      ~~~
   +Q       +S   e    a      +S   +S   +S   +S   S  +E     S  S
|-(15)-----(15)------15b16==(15)-(15)-(15)r(15)-15-(15)---------|
|---------------16----------------------------------------16-18-|
|---------------------------------------------------------------|
|---------------------------------------------------------------|
|---------------------------------------------------------------|
|---------------------------------------------------------------|
|
|   H                              H
|--15-----------------------------16----------------------------|
|--16----------------------------(16)---------------------------|
|---------------------------------------------------------------|
|---------------------------------------------------------------|
|---------------------------------------------------------------|
|---------------------------------------------------------------|
|
|   E  S S  +S   S E               E         S   S  +S  S  E
|---------------------------------------------------------------|
|--------4--(4)----------------------------------4--(4)---------|
|------3---------3---------------------------3----------3-------|
|------------------1---------------------------------------1----|
|---------------------------------------------------------------|
|---3------------------------------4----------------------------|


  Bb/D                          Eb5               (Bb/D)
 ~~~~~~~~~~~~~~~                                ~~~~~~~    ~~
   +Q       +S   e   a      +S   +S   +S   +S   S  +E   S  S
|------------------------------------------------------------|
|-(18)-----(18)-15--18b20==(18)-(18)-(18)r(18)-18-(18)-15-16-|
|------------------------------------------------------------|
|------------------------------------------------------------|
|------------------------------------------------------------|
|------------------------------------------------------------|
|
|   H                             Q                 Q
|-/18----------------------------15----------------13--------|
|-/18----------------------------16----------------15--------|
|------------------------------------------------------------|
|------------------------------------------------------------|
|------------------------------------------------------------|
|------------------------------------------------------------|
|
|   E  S S  +S   E.               S    S    E       Q
|------------------------------------------------------------|
|--------6--(6)----------------------------------------------|
|------3---------3---------------------3---------------------|
|---0-----------------------------1---------1-------0--------|
|------------------------------------------------------------|
|------------------------------------------------------------|


  C5                  F/A
    ~~~~~~~~~       ~~~~~~~                              ~~~
   +Q    +S   S  S  S  +E.      a      +S   +S   +S   S  S
|----------------------------------------------------------|
|-(16)--(16)-15-16-18-(18)-----18b20==(18)-(18)r(18)-16-15-|
|----------------------------------------------------------|
|----------------------------------------------------------|
|----------------------------------------------------------|
|----------------------------------------------------------|
|
|   H                   H
|-\11------------------\8----------------------------------|
|-\13-----------------\10----------------------------------|
|----------------------------------------------------------|
|----------------------------------------------------------|
|----------------------------------------------------------|
|----------------------------------------------------------|
|
|   Q.           S  S   S  S S          S   +S    S   E
|----------------------------------------------------------|
|---------------------------------------6---(6)------------|
|---5------------------------5--------------------5--------|
|---5----------------------3--------------------------3----|
|---3------------3--1---0----------------------------------|
|----------------------------------------------------------|


  Bb5                            (D5)
 ~~~~~~                            ~~~~~~~
   +Q    +S   a      +S   +S   S   Q   E.  +S
|------------20b22==(20)r(20)-18--17------------||
|-(15)--(15)-22b23==(22)r(22)-20--19--19--(19)--||
|-------------------------------------19--(19)\-||
|-----------------------------------------------||
|-----------------------------------------------||
|-----------------------------------------------||
|
|   H                              H
|-----------------------------------------------||
|--11----------------------------/15------------||
|---7----------------------------/11------------||
|-----------------------------------------------||
|-----------------------------------------------||
|-----------------------------------------------||
|
|                                  ~~~
|   H                              H
|-----------------------------------------------||
|-----------------------------------------------||
|---3-------------------------------------------||
|---3-------------------------------------------||
|---1-----------------------------/5------------||
|-----------------------------------------------||


 Interlude
  G5                          Fadd9
  Gtr V
   W                           +W
   |
   /

   ~~~~~~~~~~~~~~
   H         +Q.       +E       W
|---------------------------|-----------------------|
|-20--------(20)------(20)\-|-----------------------|
|-12--------(12)------(12)\-|-----------------------|
|---------------------------|-----------------------|
|---------------------------|-----------------------|
|---------------------------|-----------------------|
|
|                               >
|  ~~~~~~~~~~~~~~~~~~~~~~~~~~~~~~~~
|  W                           +W
|-15------------------------|-(15)------------------|
|-11------------------------|-(11)------------------|
|---------------------------|-----------------------|
|---------------------------|-----------------------|
|---------------------------|-----------------------|
|---------------------------|-----------------------|
|
| Gtr I
|  E E  E E   E  E  E   E       E  E  E E  E E  E E
|---------------------------|-----------------------|
|---------------------------|-----------------------|
|-^3---^3---^-3----^3-------|-^-2----^2---^2---^2---|
|-^7---^7---^-7----^7-------|-^-5----^5---^5---^5---|
|-^5---^5-5-^-5----^5---5---|-^-3----^3-3-^3---^3-3-|
|-^3-3------^-3--3----------|-^-1--1------^1-1------|


  Gmadd9                Fadd9
   W                     W
   W                     W
|---------------------|----------------------||
|---------------------|----------------------||
|---------------------|----------------------||
|---------------------|----------------------||
|---------------------|----------------------||
|---------------------|----------------------||
|
|  W                     W
|---------------------|----------------------||
|---------------------|----------------------||
|---------------------|----------------------||
|---------------------|----------------------||
|---------------------|----------------------||
|---------------------|----------------------||
|
|  E E  E E  E E  E E    E E  E E  E E  E E
|---------------------|----------------------||
|---------------------|----------------------||
|-^3---^3---^3---^3---|-^2---^2---^2---^2----||
|-^7---^7---^7---^7---|-^5---^5---^5---^5----||
|-^5---^5-5-^5---^5-5-|-^3---^3-3-^3---^3-3--||
|-^3-3------^3-3------|-^1-1------^1-1-------||


 Bass Solo
  Gmadd9              Fadd9
  Gtr I
  S S S S Q  +H       S S S S Q  +H
|-------------------|-------------------|
|---------3--(3)----|---------1--(1)----|
|-------3-----------|-------2-----------|
|-----7-------------|-----5-------------|
|---5---------------|---3---------------|
|-3-----------------|-1-----------------|


  Gmadd9              Fadd9
  S S S S Q  +H       S S S S Q  +H
|-------------------|-------------------|
|---------3--(3)----|---------1--(1)----|
|-------3-----------|-------2-----------|
|-----7-------------|-----5-------------|
|---5---------------|---3---------------|
|-3-----------------|-1-----------------|


  Cm7                    Dm7
   Q.    E +E. S S S E     Q.     E  +E.  S  T  T  S  S  S
|----------------------|-----------------------------------|
|-------^8-(8)---8-----|--------^10-(10)----10h13p10-------|
|-^8----^8-(8)-----8---|-^10----^10-(10)-------------10----|
|-^8----^8-(8)-------8-|-^10----^10-(10)----------------10-|
|----------------------|-----------------------------------|
|-^8-----------8-------|-^10-------------10----------------|


  Gm11
                     |-3-|
  S S S S +Q   +Q    E E e
|-------------------^5p3----|
|-------1-(1)--(1)--^3---3--|
|-----3-------------^3------|
|---3-----------------------|
|---------------------------|
|-3-------------------------|


  Em7b5               Ebm7                    Dm9   D7b9
                                                            Gtrs III, IV
   H    +E. S S S E    Q.    E +Q   S S S S    Q.    E +Q   Q
|-------------------|-----------------------|-------------------||
|-^8----(8)---8-----|-^7----^7-(7)----7-----|-^5----^4-(4)------||
|-^7----(7)-----7---|-^6----^6-(6)------6---|-^5----^5-(5)------||
|-^8----(8)-------8-|-^8----^8-(8)--------8-|-^3----^4-(4)------||
|-^7----(7)-7-------|-^6------------6-------|-^5----^5-(5)--x\--||
|-------------------|-----------------------|---------------x\--||


 Guitar Solo #3
       G5
  Gtr II
        ~~~~                            ~~~~~~~~
              |-3-|       |--3--|               |-3-|
  a    +Q.    S S S a    +S   S S a    +E  +E   S S S
|-------------3-----------------3---------------3-----|
|-6b8==(6)r-----6-3-----------3---6b8==(6)-(6)r---6-3-|
|-------------------5b7==(5)r-------------------------|
|-----------------------------------------------------|
|-----------------------------------------------------|
|-----------------------------------------------------|
|
| Gtrs III, IV
|       W
|-------3---------------------------------------------|
|-------3---------------------------------------------|
|-------0---------------------------------------------|
|-------0---------------------------------------------|
|-----------------------------------------------------|
|-------3---------------------------------------------|


       C5                                                   Bb5
                                                      ~
        |------6------|   |--------6--------|           |-----6------|
  a    +S   S S E    +S   S S S a    +S   S S T T T T E S S    S S S S
|-------------3-6b8==(6)r-3--------------------------------------------|
|-----------3---------------6-3-----------3-3--------------------------|
|-5b7==(5)r---------------------5b7==(5)r-----6p5-3---3----------------|
|---------------------------------------------------5---5-3------------|
|--------------------------------------------------------------5-4-3---|
|--------------------------------------------------------------------6-|
|
|       H.                                              S   E.
|----------------------------------------------------------------------|
|----------------------------------------------------------------------|
|-------5-----------------------------------------------5---3----------|
|-------5-----------------------------------------------5---3----------|
|-------3-----------------------------------------------3---1----------|
|-------3--------------------------------------------------------------|


  G5
  ~~                           ~~~~~~~~~~~~
  Q.   S S  a     +S    a     +E. +E  +T   T  S
|------------------------------------------------|
|------------------------------------------------|
|--------------------------------------------(0)-|
|--------------------------------------------(0)-|
|----------[5]b8==(5)r-[5]b8==(5)-(5)-(5)r-5-----|
|-3----1-3---------------------------------------|
|
| W
|-3----------------------------------------------|
|-3----------------------------------------------|
|-0----------------------------------------------|
|-0----------------------------------------------|
|------------------------------------------------|
|-3----------------------------------------------|


  C5                                        Bb5
   ~~~       ~~             ~~
             |--3--|  |--3--|
   Q   +E    S  S  S  S  S  S  +E  S  a      +E   S
|------------------------------------------------13-|
|-----------------------12-----------13b15==(13)----|
|-----------------10-12----12-(12)------------------|
|-----------10-12-----------------------------------|
|---------------------------------------------------|
|-/8---(8)\-----------------------------------------|
|
|  H.                              S          E.
|---------------------------------------------------|
|---------------------------------------------------|
|--5-------------------------------5----------3-----|
|--5-------------------------------5----------3-----|
|--3-------------------------------3----------1-----|
|--3------------------------------------------------|


  G5
                                                                                  ~~~~
   |--3--|
   S  S  S  T  T  T  T  T  T  T  T   T  T         T  T  T  T  T  T   S      +S    E.  T  T
|----13----13----13----13----13-----13-----------13----13----13----------------------------|
|-13----13----13----13----13----13r----13pb14.5=====13----13----13r-13pb14r(13)------------|
|-------------------------------------------------------------------------------[15]-12----|
|---------------------------------------------------------------------------------------15-|
|------------------------------------------------------------------------------------------|
|------------------------------------------------------------------------------------------|
|
|  W
|--3---------------------------------------------------------------------------------------|
|--3---------------------------------------------------------------------------------------|
|--0---------------------------------------------------------------------------------------|
|--0---------------------------------------------------------------------------------------|
|------------------------------------------------------------------------------------------|
|--3---------------------------------------------------------------------------------------|


         C5                                                                       Bb5
           ~~~~~                        ~~                                          ~~~~~
                                                       |------6-------|
   a      +S.   T     +S   a      +S    E  T  T  T  T  S  S  S  S  S  S  S  a      +E.
|-13b15==(13)r----------------------------13-------------------------15-18-15b18==(15)r--|
|--------------13b14r(13)--------------------14p13----------13s15-18---------------------|
|-------------------------15b17==(15)r-12----------15-12-15------------------------------|
|----------------------------------------------------------------------------------------|
|----------------------------------------------------------------------------------------|
|----------------------------------------------------------------------------------------|
|
|          H.                                                            S          E.
|----------------------------------------------------------------------------------------|
|----------------------------------------------------------------------------------------|
|----------5-------------------------------------------------------------5----------3----|
|----------5-------------------------------------------------------------5----------3----|
|----------3-------------------------------------------------------------3----------1----|
|----------3-----------------------------------------------------------------------------|


         G5
           ~~~~~
                                                   |-----5-----|          |----------5----------|    |------6-------|  |----------9:8----------|
   a      +S.   T  a      +T    T  a      +T    T  T  T  T  T  T  a      +T    T  T  T  a      +T    T  T  T  T  T  T  X  X  X  X  X  X  X  X  X  X  X  X  X  X  X  X  X  X  X  X  X  X  X  X  X
|--------------15--------------15--------------15-------15-------18b20==(18)r-15--------------------15-------18-15----15-17-18-17-15-17-18-17p15--------------------------------------------------|
|-18b20==(18)r----18b20==(18)r----18b20==(18)r----18-15----18-15-----------------18-15-18b20==(18)r----18-15-------18----------------------------15-17-15-15-17-15-17-15-17-17-15-----------------|
|---------------------------------------------------------------------------------------------------------------------------------------------------------------------------------18-17-15-15-17--|
|-------------------------------------------------------------------------------------------------------------------------------------------------------------------------------------------------|
|-------------------------------------------------------------------------------------------------------------------------------------------------------------------------------------------------|
|-------------------------------------------------------------------------------------------------------------------------------------------------------------------------------------------------|
|
|          W
|----------3--------------------------------------------------------------------------------------------------------------------------------------------------------------------------------------|
|----------3--------------------------------------------------------------------------------------------------------------------------------------------------------------------------------------|
|----------0--------------------------------------------------------------------------------------------------------------------------------------------------------------------------------------|
|----------0--------------------------------------------------------------------------------------------------------------------------------------------------------------------------------------|
|-------------------------------------------------------------------------------------------------------------------------------------------------------------------------------------------------|
|----------3--------------------------------------------------------------------------------------------------------------------------------------------------------------------------------------|


         Cm/A
   a      +Q    +E.  S  Q   +Q
|--------------------------------|
|-15b16==(15)--(15)-15-15--(15)r=|
|--------------------------------|
|--------------------------------|
|--------------------------------|
|--------------------------------|
|
|          H.                Q
|--------------------------------|
|----------4---------------------|
|----------5---------------------|
|----------5---------------------|
|----------0---------------------|
|--------------------------/14\--|


                       Outro
  E=76  H.=H      E=42  Freely approx. Q=42
  D5                    Gm
   ~~        ~~    ~~~~~~~~~~~~~      ~~~      ~
   H      E  E  E  E     Q   E. T  T  E  s T T E s S
|--------------------||------------------------------|
|-15----\11-10-------||------------------------------|
|--------------12-11-||-12--\7--7s10s=9--5-5s9s7-3-3-|
|--------------------||------------------------------|
|--------------------||------------------------------|
|--------------------||------------------------------|
|
|                                     >
|  W                     H           +H
|--------------------||-!3-----------(3)-------------|
|--3-----------------||-!3-----------(3)-------------|
|--2-----------------||-!3-----------(3)-------------|
|--0-----------------||-!5-----------(5)-------------|
|--0-----------------||-!5-----------(5)-------------|
|--------------------||-!3-----------(3)-------------|


  N.C.
                      \0.5________/
  ~     ~     ~~~~~                  ~~~
              |------3-------|
  E s S E s S Q  Q E  a     +E    a +W
|-------------------------------|----------*|
|-------------------------------|----------*|
|-5-2-2s3-0---------------------|----------*|
|-----------5s7-\3-0-(0)----(0)h|=5-(5)----*|
|-------------------------------|----------*|
|-------------------------------|----------*|




--------------------------------------------------------------------------------


Duration Legend
---------------
W - whole; H - half; Q - quarter; E - 8th; S - 16th; T - 32nd; X - 64th; a - acciaccatura
+ - note tied to previous; . - note dotted; .. - note double dotted
Uncapitalized letters represent notes that are staccato (1/2 duration)
Irregular groupings are notated above the duration line
Duration letters will always appear directly above the note/fret number it represents the
duration for.  Duration letters with no fret number below them represent rests.  Multi-
bar rests are notated in the form Wxn, where n is the number of bars to rest for.  Low
melody durations appear below the staff

Tablature Legend
----------------
 h   - hammer-on
 p   - pull-off
 b   - bend
 pb  - pre-bend
 r   - bend release (if no number after the r, then release immediately)
 /\  - slide into or out of (from/to "nowhere")
 s   - legato slide
 S   - shift slide
 - natural harmonic
[n]  - artificial harmonic
n(n) - tapped harmonic
 ~   - vibrato
 tr  - trill
 T   - tap
 TP  - trem. picking
 PM  - palm muting
\n/  - tremolo bar dip; n = amount to dip
 \n  - tremolo bar down
 n/  - tremolo bar up
/n\  - tremolo bar inverted dip
 =   - hold bend; also acts as connecting device for hammers/pulls
 <> - volume swell (louder/softer)
 x   - on rhythm slash represents muted slash
 o   - on rhythm slash represents single note slash

Misc Legend
-----------
 |  - bar
||  - double bar
||o - repeat start
o|| - repeat end
*|  - double bar (ending)
 :  - bar (freetime)
 $  - Segno
 &  - Coda
Tempo markers -  = BPM(8/16=s8/s16), where s8 = swing 8ths, s16 = swing 16ths


comments
print report bad tab
I want to post or [tab]
guest
You may want to rate the tab now too:
select rating
Please do not post tabs as comments. Select "correction" instead!