Oops, an error
Loading. Please wait.

That Old Wheel Tab

2,852 views 3 this week
no commentswrite comment
1 2 3 4 5
accurate
x 1
Autoscroll
+/-
esc
set tempo
stop
Contributor
Difficulty
intermediate
Hey! There's an official Ultimate Guitar app which is ideal
for learning songs when you're away from computer. Get the app
WARNING: You are trying to view
                                    content from Ultimate-Guitar.com
                                    in an unauthorized application,
                                    which is prohibited.

                                    Please use an official Ultimate
                                    Guitar Tabs application for iPhone,
                                    iPad or Android to access legitimate
                                    chords, guitar, bass, and drum tabs
                                    from Ultimate-Guitar.com database.

                                    Type "ultimate guitar tabs" in Apple
                                    App Store's or Android Market's
                                    search to find the application.
Johnny Cash - That Old Wheel

As I'm taking part in some Johnny Cash cover band project as lead guitarist
temporarily, there might follow some songs if there are no good or even any tabs here.


     Q    Q    Q    Q       Q    Q    Q    Q       Q    Q    Q    Q     
E||----------------------|----------------------|----------------------|
B||----------------------|----------------------|----------------------|
G||----------------------|----------------------|----------------------|
D||-------4---------4----|-------4---------4----|-----------------4----|
A||--2---------2---------|--2---------2---------|------------2---------|
E||----------------------|----------------------|--0----0--------------|


  Q    Q    Q    Q       Q    Q    Q    Q       Q    Q    Q    Q     
----------------------|----------------------|----------------------|
----------------------|----------------------|----------------------|
----------------------|----------------------|----------------------|
-------4--------------|----------------------|-------4---------4----|
--2---------2---------|--2----2---------4----|--2---------2---------|
-----------------2----|------------2---------|----------------------|


  Q    Q    Q    Q       Q    Q    Q    Q       Q    Q    Q    Q     
----------------------|----------------------|----------------------|
----------------------|----------------------|----------------------|
----------------------|----------------------|----------------------|
-----------------4----|-----------------4----|----------------------|
------------2---------|------------2---------|-------4---------4----|
--0----0--------------|--0----0--------------|--2---------2---------|


  Q    Q    Q    Q       Q    Q    Q    Q       Q    Q    Q    Q     
----------------------|----------------------|----------------------|
----------------------|----------------------|----------------------|
----------------------|----------------------|----------------------|
----------------------|-------4--------------|-------4--------------|
-------4---------4----|--2---------2---------|--2---------2---------|
--2---------2---------|-----------------2----|-----------------2----|


  Q    Q    Q    Q       Q    Q    Q    Q       Q    Q    Q    Q     
----------------------|----------------------|----------------------|
----------------------|----------------------|----------------------|
----------------------|----------------------|----------------------|
-----------------4----|-----------------4----|----------------------|
------------2---------|--2---------2---------|--2----2---------4----|
--0----0--------------|-------2--------------|------------2---------|


  Q    Q    Q    Q         Q    Q    Q    Q       Q    Q    Q    Q     
------------------------|----------------------|----------------------|
------------------------|----------------------|----------------------|
------------------------|----------------------|----------------------|
-------4----------------|-----------------4----|----------------------|
--2---------2-----------|------------2---------|-------4---------4----|
-----------------2br----|--0----0--------------|--2---------2---------|


  Q    Q    Q    Q       Q    Q    Q    Q         E  E  S  S S S E  E  E  E   
----------------------|------------------------|-----------------------------|
----------------------|------------------------|-----------------------------|
----------------------|------------------------|-----------------------------|
----------------------|-------4----------------|-----2-------2------2--------|
-------4---------4----|--2---------2-----------|--------0h-2---2-------------|
--2---------2---------|-----------------2br----|--0--------------0-----2--4--|


  E  E  S  S E  E  E  S  S S S    E  E  S  S S S E  E  S  S S S  
-------------------------------|--------------------------------|
-------------------------------|--------------------------------|
-------------------------------|--------------------------------|
-----2-------2-----2-------2---|-----2-------2------2-------2---|
--0-----0h-2----------0h-2---2-|--------0h-2---2-------0h-2---2-|
----------------0--------------|--0--------------0--------------|


  E  E  E  E  E  E  E  E      E  E  E   S S E  E  E  E   
---------------------------|----------------------------|
---------------------------|----------------------------|
---------------------------|----------------------------|
-----2---------------------|-----2--------2----2--------|
--------0--1--2--1--0------|------------2---------------|
--0--------------------3b--|--0-----3b------0-----2--4--|


  E  E  S E.  E  E  S E.     E  E  S E.  E  E  E  E   
--------------------------|--------------------------|
--------------------------|--------------------------|
--------------------------|--------------------------|
-----------------2--------|-----------------2--------|
-----4----4---------------|-----4----4---------0--1--|
--5-----5-----0-----2-4---|--5-----5-----0-----------|


  E  E  E  S S E  E  E  S S    Q     Q     Q     Q      
----------------------------|--------------------------|
----------------------------|--------------------------|
----------------------------|--------------------------|
-----4-----4-4----4-----4-4-|--------------------------|
--2------------2------------|--2b----------------------|
--------2------------2------|--------5b----4b----2b----|


  E  E  S S E  E  S  S E  E      E  E.  S  E  S S  S E  S  E   
-----0---------0-------7------|-----0---------0------0--------|
----------2---------------8b--|---------0h-2----2p-0----------|
------------------------------|-------------------------2s-9--|
--------2---2-----------------|-----2-------------------------|
------------------2s-7--------|-------------------------------|
--0---------------------------|--0----------------------------|


  S  S S  S  E  E  S E.   S E.      E  E.  S  E  S S  S E.  E    
--9---------10--9--7------7------|-----0---------0------0-------|
----10---10----------8b-----8b---|---------0h-2----2p-0---------|
-----L-9-------------------------|------------------------------|
---------------------------------|-----2------------------------|
---------------------------------|--------------------------2s--|
---------------------------------|--0---------------------------|


  E  E  E   E  S E  S E   E     E  E.  S  E  S S  S E  S  E   
-----7-----------------------|-----0---------0------0--------|
--------8b-------7----8b--5--|---------0h-2----2p-0----------|
------------9----------------|-------------------------2s-9--|
-----------------------------|-----2-------------------------|
--7-----------------6-L------|-------------------------------|
---------------7-L-----------|--0----------------------------|


  S  S S  S  E  E  S E.   E.  S     S E.   E   E   S S S E.  E    
--9---------10--9--7-------------|-------------------------------|
----10---10----------8b----------|----8b---8b--8b--5-----5-------|
-----L-9------------------9---5h-|--6----------------6-----------|
---------------------------------|---------------------7---------|
---------------------------------|-------------------------------|
---------------------------------|---------------------------2s--|


                          Dead notes -> 0. fret     
                                                 PM  
  E  E.  S S S S E  E  S  S                      S   
-----7--------------7-------------------------------|
---------9-------9-----9p-x-------------------------|
-----------9---9------------------------------------|
-----9-------9--------------------------------------|
----------------------------------------------------|
--7----------------------------------------------9--|


  PM       PM       PM       PM                                   
  S  S  E  S  S  E  S  S  E  S  S  E     E  E.  S E  E.  S E  E   
--------------------------------------|-----0--------0---0-------|
-----7p-x-----5p-x-----4p-x-----2p-x--|---------2----------------|
--------------------------------------|--------------------------|
--------------------------------------|-----2-----2--------------|
--------------------------------------|--------------------------|
--7--------5--------4--------2--------|--0-----------------0--1--|


  E  S S S S E   Q    Q       Q    Q    Q    Q       Q    Q    Q    Q     
---------------------------|----------------------|----------------------|
---------------------------|----------------------|----------------------|
---------------------------|----------------------|----------------------|
-----4-2-------------------|-------4--------------|-----------------4----|
---------4-2---------------|--2---------2---------|------------2---------|
--2----------4b--2---------|-----------------2----|--0----0--------------|


  Q    Q    Q    Q       Q    Q    Q    Q       Q    Q    Q    Q      
----------------------|----------------------|-----------------------|
----------------------|----------------------|-----------------------|
----------------------|----------------------|-----------------------|
-------4--------------|----------------------|-------4---------------|
--2---------2---------|--2----2---------4----|--2---------2----------|
-----------------2----|------------2---------|-----------------2b----|


  Q    Q    Q    Q       Q    Q    Q    Q       Q    Q    Q    Q     
----------------------|----------------------|----------------------|
----------------------|----------------------|----------------------|
----------------------|----------------------|----------------------|
-----------------4----|----------------------|----------------------|
------------2---------|-------4---------4----|-------4---------4----|
--0----0--------------|--2---------2---------|--2---------2---------|


                          PM PM PM PM PM PM PM PM PM PM  
  Q    Q    Q    Q        E  E  S  S  S  S  E  E  E  E   
-----------------------|--------------------------------|
-----------------------|--------------------------------|
-----------------------|--------------------------------|
-----------------------|-----2--------2--------2--------|
--2---------2----------|--------0h-2-----2--------------|
-------2---------2b----|--0-----------------0-----2--4--|


  PM PM PM PM PM PM PM PM PM PM PM    PM PM PM PM PM PM PM PM PM PM PM PM  
  E  E  S  S  E  E  E  S  S  S  S     E  E  S  S  S  S  E  E  S  S  S  S   
-----------------------------------|--------------------------------------|
-----------------------------------|--------------------------------------|
-----------------------------------|--------------------------------------|
-----2--------2-----2--------2-----|-----2--------2--------2--------2-----|
--0-----0h-2-----------0h-2-----2--|--------0h-2-----2--------0h-2-----2--|
-----------------0-----------------|--0-----------------0-----------------|


  PM PM PM PM PM PM PM PM     PM PM PM  PM PM PM PM PM PM  
  E  E  E  E  E  E  E  E      E  E  E   S  S  E  E  E  E   
---------------------------|------------------------------|
---------------------------|------------------------------|
---------------------------|------------------------------|
-----2---------------------|-----2---------2-----2--------|
--------0--1--2--1--0------|------------2-----------------|
--0--------------------3b--|--0-----3b--------0-----2--4--|


  PM PM PM PM  PM PM PM PM     PM PM PM PM  PM PM PM PM  
  E  E  S  E.  E  E  S  E.     E  E  S  E.  E  E  E  E   
----------------------------|---------------------------|
----------------------------|---------------------------|
----------------------------|---------------------------|
------------------2---------|------------------2--------|
-----4-----4----------------|-----4-----4---------0--1--|
--5-----5------0-----2--4---|--5-----5------0-----------|


  PM PM PM PM PM PM PM PM PM PM    PM    PM    PM    PM     
  E  E  E  S  S  E  E  E  S  S     Q     Q     Q     Q      
--------------------------------|--------------------------|
--------------------------------|--------------------------|
--------------------------------|--------------------------|
-----4-----4--4-----4-----4--4--|--------------------------|
--2--------------2--------------|--2b----------------------|
--------2--------------2--------|--------5b----4b----2b----|


  S S S S S S S S S S S S S S E      E  E  S  S S S E  E  E  E   
----------------------------------|-----------------------------|
----------------------------------|-----------------------------|
----------------------------------|-----------------------------|
----------------------------------|-----2-------2------2--------|
----------------------------------|--------0h-2---2-------------|
--0-0-0-0-0-0-0-0-0-0-0-0-0-0-2b--|--0--------------0-----2--4--|


  E  E  S  S E  E  E  S  S S S    E  E  S  S S S E  E  S  S S S  
-------------------------------|--------------------------------|
-------------------------------|--------------------------------|
-------------------------------|--------------------------------|
-----2-------2-----2-------2---|-----2-------2------2-------2---|
--0-----0h-2----------0h-2---2-|--------0h-2---2-------0h-2---2-|
----------------0--------------|--0--------------0--------------|


  E  E  E  E  E  E  E  E      E  E  E   S S E  E  E  E   
---------------------------|----------------------------|
---------------------------|----------------------------|
---------------------------|----------------------------|
-----2---------------------|-----2--------2----2--------|
--------0--1--2--1--0------|------------2---------------|
--0--------------------3b--|--0-----3b------0-----2--4--|


  E  E  S E.  E  E  S E.     E  E  S E.  E  E  E  E   
--------------------------|--------------------------|
--------------------------|--------------------------|
--------------------------|--------------------------|
-----------------2--------|-----------------2--------|
-----4----4---------------|-----4----4---------0--1--|
--5-----5-----0-----2-4---|--5-----5-----0-----------|


  E  E  E  S S E  E  E  S S    E  E  E  S S E  E  E  E   
----------------------------|---------------------------|
----------------------------|---------------------------|
----------------------------|---------------------------|
-----4-----4-4----4-----4-4-|-----4-----4-4----4--------|
--2------------2------------|--2------------2-----------|
--------2------------2------|--------2------------2--4--|


  E  S S E   S S E  S S E   E     E  S S S  S E  E  S S E  E   
-------------------------------|------------------------------|
-------------------------------|------------------------------|
---------------2---------------|------------------------------|
-----2-2-----2------2-2-----2--|-----4-4------4-----4-4-4-----|
--0------3b------0------3b-----|--2------4h-5----2---------2--|
-------------------------------|------------------------------|


  S S S S S S S S S S S S S S S S    S S E.   S E.   S E   Q     
----------------------------------|-----------------------------|
----------------------------------|-----------------------------|
----------------------------------|-----------------------------|
----------------------------------|------------------------2----|
----------------------------------|-----------2------2-----2----|
--0-0-0-0-0-0-0-0-0-0-0-0-0-0-0-0-|--0-0-3b-----3b-----3b--0----|


  W                  
-------------------||
-------------------||
-------------------||
--L----------------||
--L----------------||
--L----------------||




Duration Legend
---------------
W - whole
H - half
Q - quarter
E - 8th
S - 16th
. - note dotted


Tablature Legend
----------------
L - tied note
x - dead note
h - hammer on
b - bend
br - bendRelease
S - shift slide
s - legato slide
comments
We did not receive enough feedback on this tab! Please rate:
print report bad tab
1 2 3 4 5
I want to post or [tab]
guest
You may want to rate the tab now too:
select rating
Please do not post tabs as comments. Select "correction" instead!