Oops, an error
Loading. Please wait.

Secret Agent Man Chords

ver1
ver1

Whole song

More versions @911Tabs.com
92,688 views 490 this week
9 commentsread comments
1 2 3 4 5
accurate
x 12
add to favorites launch autoscroll
font size
0
reset
transpose
0
reset
highlight chords
display chords
Autoscroll
+/-
esc
set tempo
stop
WARNING: You are trying to view
                                    content from Ultimate-Guitar.com
                                    in an unauthorized application,
                                    which is prohibited.

                                    Please use an official Ultimate
                                    Guitar Tabs application for iPhone,
                                    iPad or Android to access legitimate
                                    chords, guitar, bass, and drum tabs
                                    from Ultimate-Guitar.com database.

                                    Type "ultimate guitar tabs" in Apple
                                    App Store's or Android Market's
                                    search to find the application.
-----------------------------------------------------------------------------
                             Secret Agent Man – Johnny Rivers
-----------------------------------------------------------------------------

Tuning: Normal


Intro
E|----0---0---0---0---0---0---------|
B|--0---1---1---2---1---1-----------|
G|----------------------------------| x 3
D|----------------------------------|
A|----------------------------------|
E|----------------------------------|

Verse:
Em                 Am              Em
There’s a man who leads a life of danger
    Em                            B7
To everyone he meets he stays a stranger
     Em                      Am
With every move he makes, another chance he takes
Em                Am            Em
Odds are he won’t live to see tomorrow

Chorus:
      Bm     Em         Bm     Em
Secret Agent Man, Secret Agent Man
        C           B7                         Em
They've given you a number and taken away your name

Intro x 2

Beware of pretty faces that you find
A pretty face can hide an evil mind
Oh, be careful what you say, or you will give yourself away
Odds are you won’t live to see tomorrow

Chorus x 1

Intro x 2

Solo

Chorus x 1

Intro x 2

Swinging on the Riviera one day
And then lying in a Bombay alley next day
Oh, don't you let the wrong words slip, while kissing persuasive lips
Odds are you won’t live to see tomorrow

Chorus x 1

Intro x 3


   Em               Am               B7               Bm               C
E|-0----------------0----------------2----------------2----------------0----|
B|-0----------------1----------------4----------------3----------------1----|
G|-0----------------2----------------2----------------4----------------2----|
D|-2----------------2----------------4----------------4----------------0----|
A|-2----------------0----------------2----------------2----------------3----|
E|-0----------------0----------------0----------------0----------------0----|

Sorry but I could not figure out the solo.
=============================================================================
9 comments total. Showing first comments.
+2 reply
zxcvbnmnbvcxz wrote on March 25 2004, 12:00 am

your b7 is wrong
its supposed to be [x21202]

0 reply
Cap'n Crunch wrote on June 1 2004, 12:00 am

For the intro, try:

-0-0-0-0-0-0-0-0-
-0-0-1-1-2-2-1-1-
-0-0-0-0-0-0-0-0-
-2-2-2-2-2-2-2-2-
-2-2-2-2-2-2-2-2-
-0-0-0-0-0-0-0-0-

0 reply
412string2 wrote on April 13 2009, 03:39 pm

A OK.

I want to post or [tab]
guest
You may want to rate the tab now too:
select rating
Please do not post tabs as comments. Select "correction" instead!