Oops, an error
Loading. Please wait.

Whos Right Or Wrong Tab

ver1
ver1

Whole song

Interactive

More versions @911Tabs.com
338 views 1 this week
no commentswrite comment
1 2 3 4 5
please rate
Autoscroll
+/-
esc
set tempo
stop
Contributor
Difficulty
intermediate
Hey! There's an official Ultimate Guitar app which is ideal
for learning songs when you're away from computer. Get the app
WARNING: You are trying to view
                                    content from Ultimate-Guitar.com
                                    in an unauthorized application,
                                    which is prohibited.

                                    Please use an official Ultimate
                                    Guitar Tabs application for iPhone,
                                    iPad or Android to access legitimate
                                    chords, guitar, bass, and drum tabs
                                    from Ultimate-Guitar.com database.

                                    Type "ultimate guitar tabs" in Apple
                                    App Store's or Android Market's
                                    search to find the application.
-------------------------------------------------------------------------------
1.            (Who's) Right or Wrong- The Johnny Van Zant Band
2.                             Round Two-1981
3. Words and Music by Johnny Van Zant, Robert Gay,Danny Clausman, Kevin Elson
-------------------------------------------------------------------------------
Tabbed by:Duane Baldwin
Email:duane&julie@gmail.com

Tuning:Standard

Guitar I

Intro
e|--------------------------------|--------------------------------|
B|-----------------7--8--8--7--7--|-----------------7--8--8--7--7--|
G|-----------0--x--7--7--7--7--7--|-----------0--x--7--7--7--7--7--|
D|--------7--0--x--7--7--7--7--7--|--------7--0--x--7--7--7--7--7--|
A|--7--x--7-----------------------|--7--x--7-----------------------|
E|--0--x--------------------------|--0--x--------------------------|

e|--------------------------------|--------------------------------|
B|--8--------------7--8--8--7--7--|-----------------7--8--8--7--7--|
G|--7--------0--x--7--7--7--7--7--|-----------0--x--7--7--7--7--7--|
D|--7--x--7--0--x--7--7--7--7--7--|--------7--0--x--7--7--7--7--7--|
A|-----x--7-----------------------|--7--x--7-----------------------|
E|--------------------------------|--0--x--------------------------|

1st Solo
e|-----------------------|-----------------------|-----------------------|
B|-----------------------|-----------------------|-----------------------|
G|--2--5--4--2--5--4--2--|--2--5--4--2--5--4--2--|--2--5--4--2--5--4--2--|
D|--2--5--4--2--5--4--2--|--2--5--4--2--5--4--2--|--2--5--4--2--5--4--2--|
A|--0--------0--------0--|--0--------0--------0--|--0--------0--------0--|
E|-----------------------|-----------------------|-----------------------|

e|-----------------------|-----------------------|--------------------------|
B|-----------------------|-----------------------|--------------------------|
G|--2--5--4--2--5--4--2--|--4--7--6--4--7--6--4--|-----------------------2--|
D|--2--5--4--2--5--4--2--|--4--7--6--4--7--6--4--|--5--5--5--5--5--5--5--2--|
A|--0--------0--------0--|-----------------------|--5--5--5--5--5--5--5--0--|
E|-----------------------|-----------------------|--3--3--3--3--3--3--3-----|

e|--------------------------|---------------------------------|
B|-----------7--8--8--7--7--|---------------------------------|
G|--------0--7--7--7--7--7--|--------0------------------------|
D|-----7--0--7--7--7--7--7--|-----7--0--5---------------------|
A|--7--7--------------------|--7--7--------7--5---------------|
E|--0-----------------------|--0-----------------7--6--5--3---|

1st Verse
e|-----------------------------|--------------------------|
B|-----------7--8--8--7--7--8--|-----------7--8--8--7--8--|
G|--------0--7--7--7--7--7--7--|--------0--7--7--7--7--7--|
D|-----7--0--7--7--7--7--7--7--|-----7--0--7--7--7--7--7--|
A|--7--7-----------------------|--7--7--------------------|
E|--0--------------------------|--0-----------------------|

e|-----------------------------|--------------------------|
B|-----------7--8--8--7--7--8--|-----------7--8--7--7--8--|
G|--------0--7--7--7--7--7--7--|--------0--7--7--7--7--7--|
D|-----7--0--7--7--7--7--7--7--|-----7--0--7--7--7--7--7--|
A|--7--7-----------------------|--7--7--------------------|
E|--0--------------------------|--0-----------------------|

1st Chorus
e|------------|------------|------------|------------|----------------|
B|------------|------------|------------|------------|----------------|
G|-----2------|-----2------|------2-----|------2-----|----4----4------|
D|-----2------|-----2------|------2-----|------2-----|----4----4------|
A|-----0------|-----0------|------0-----|------0-----|----2----2------|
E|------------|------------|------------|------------|----------------|

e|--------------------------|
B|--------------------------|
G|-----------------------2--|
D|--5--5--5--5--5--5--5--2--|
A|--5--5--5--5--5--5--5--0--|
E|--3--3--3--3--3--3--3-----|

e|--------------------------|---------------------------------|
B|-----------7--8--8--7--7--|---------------------------------|
G|--------0--7--7--7--7--7--|--------0------------------------|
D|-----7--0--7--7--7--7--7--|-----7--0--5---------------------|
A|--7--7--------------------|--7--7--------7--5---------------|
E|--0-----------------------|--0-----------------7--6--5--3---|

2nd Verse
e|--------------------------|-----------------------------|
B|-----------7--8--8--7--7--|-----------7--8--8--7--7--8--|
G|--------0--7--7--7--7--7--|--------0--7--7--7--7--7--7--|
D|-----7--0--7--7--7--7--7--|-----7--0--7--7--7--7--7--7--|
A|--7--7--------------------|--7--7-----------------------|
E|--0-----------------------|--0--------------------------|

e|--------------------------|--------------------------|
B|-----------7--8--8--7--7--|-----------7--8--8--7--7--|
G|--------0--7--7--7--7--7--|--------0--7--7--7--7--7--|
D|-----7--0--7--7--7--7--7--|-----7--0--7--7--7--7--7--|
A|--7--7--------------------|--7--7--------------------|
E|--0-----------------------|--0-----------------------|

2nd Chorus
e|------------|------------|------------|------------|----------------|
B|------------|------------|------------|------------|----------------|
G|-----2------|-----2------|------2-----|------2-----|----4----4------|
D|-----2------|-----2------|------2-----|------2-----|----4----4------|
A|-----0------|-----0------|------0-----|------0-----|----2----2------|
E|------------|------------|------------|------------|----------------|

e|--------------------------|
B|--------------------------|
G|-----------------------2--|
D|--5--5--5--5--5--5--5--2--|
A|--5--5--5--5--5--5--5--0--|
E|--3--3--3--3--3--3--3-----|

e|--------------------------------|-----------|
B|-----------------7--8--8--7--7--|-----------|
G|-----------0--x--7--7--7--7--7--|----2b-----|
D|--------7--0--x--7--7--7--7--7--|-----------|
A|--7--x--7-----------------------|-----------|
E|--0--x--------------------------|-----------|

Main Solo
e|-----------|------------------------------------|--------------------------|
B|-----------|------------------------------------|-----------------------8--|
G|--0--2--4--|--7+~~~~-7\2--2p0-----0-----0-------|----0--2/4--7-----7--9---9|
D|-----------|---------------------2-----2-----2--|-2-------------9----------|
A|-----------|------------------------------------|--------------------------|
E|-----------|------------------------------------|--------------------------|

   ~~~~~
e|-----------------------------------|-----------------------------------|
B|-----------------------------------|-------------8--10br--10p8-----10--|
G|--9+--9+--9+--7-----9p7-----7------|-------7--9-----------------9------|
D|-----------------9-------9-----9\--|--7/9------------------------------|
A|-----------------------------------|-----------------------------------|
E|-----------------------------------|-----------------------------------|

e|----------------------------------12b--|---------------------------------|
B|----------------10--10--12br--10-------|--12pbr--10--12br--10------------|
G|---------9--11-------------------------|-----------------------11p9------|
D|--9--11--------------------------------|-----------------------------11--|
A|---------------------------------------|---------------------------------|
E|---------------------------------------|---------------------------------|

e|------------------|---------------------------------------|
B|--------------10--|--12--10-------------------------------|
G|--9--9--9h11------|----------11--9---------------7--7-----|
D|------------------|-----------------9--7--9--7\--------9--|
A|------------------|---------------------------------------|
E|------------------|---------------------------------------|

e|-------------------------------------------|--------------------------|
B|----------------------------------------8--|--10br--8-----10p8-----8--|
G|--7h9+~~~--7------9p7------7------7/9------|-----------9--------9-----|
D|----------------9--------9------9----------|--------------------------|
A|-------------------------------------------|--------------------------|
E|-------------------------------------------|--------------------------|

e|-----------------3h5--3----------------------|-----------------------|
B|--12brbrb--13br----------5--3----------------|-----------------------|
G|-------------------------------4\2--0--------|-----------------------|
D|---------------------------------------2--2--|--5--------------------|
A|---------------------------------------------|-----7--5--------------|
E|---------------------------------------------|-----------7--6--5--3--|

3rd Verse
e|--------------------------|-----------------------------|
B|-----------7--8--8--7--7--|-----------7--8--8--7--7--8--|
G|--------0--7--7--7--7--7--|--------0--7--7--7--7--7--7--|
D|-----7--0--7--7--7--7--7--|-----7--0--7--7--7--7--7--7--|
A|--7--7--------------------|--7--7-----------------------|
E|--0-----------------------|--0--------------------------|

e|--------------------------|--------------------------|
B|-----------7--8--8--7--7--|-----------7--8--8--7--7--|
G|--------0--7--7--7--7--7--|--------0--7--7--7--7--7--|
D|-----7--0--7--7--7--7--7--|-----7--0--7--7--7--7--7--|
A|--7--7--------------------|--7--7--------------------|
E|--0-----------------------|--0-----------------------|

3rd Chorus
e|------------|------------|------------|------------|----------------|
B|------------|------------|------------|------------|----------------|
G|-----2------|-----2------|------2-----|------2-----|----4----4------|
D|-----2------|-----2------|------2-----|------2-----|----4----4------|
A|-----0------|-----0------|------0-----|------0-----|----2----2------|
E|------------|------------|------------|------------|----------------|

e|--------------------------|
B|--------------------------|
G|-----------------------2--|
D|--5--5--5--5--5--5--5--2--|
A|--5--5--5--5--5--5--5--0--|
E|--3--3--3--3--3--3--3-----|

Outro
e|--------------------------------|--------------------------------|
B|-----------------7--8--8--7--7--|-----------------7--8--8--7--7--|
G|-----------0--x--7--7--7--7--7--|-----------0--x--7--7--7--7--7--|
D|--------7--0--x--7--7--7--7--7--|--------7--0--x--7--7--7--7--7--|
A|--7--x--7-----------------------|--7--x--7-----------------------|
E|--0--x--------------------------|--0--x--------------------------|

e|--------------------------------|-------------------------------------|
B|--8--------------7--8--8--7--7--|-------------------------------------|
G|--7--------0--x--7--7--7--7--7--|-----------0-------------------------|
D|--7--x--7--0--x--7--7--7--7--7--|--------7--0--5----------------------|
A|-----x--7-----------------------|--7--x--7--------7--5----------------|
E|--------------------------------|--0--x-----------------7--6--5--3--0-|

e|--------------------------|
B|--------------------------|
G|--------------------------|
D|--5-----------------------|
A|-----7--5--------------7--|
E|-----------7--6--5--3--0--|


Guitar II

Intro
e|--------------------------|-----------------------------------|
B|-----------7--8--8--7--7--|-----------------7--8--8--7--7--7--|
G|-----------7--7--7--7--7--|-----------0--x--7--7--7--7--7--7--|
D|--2--------7--7--7--7--7--|--------7--0--x--7--7--7--7--7--7--|
A|--2-----------------------|--7--x--7--------------------------|
E|--0-----------------------|--0--------------------------------|

e|--------------------------------|--------------------------------|
B|--8--------------7--8--8--7--7--|-----------------7--8--8--7--7--|
G|--7--------0--x--7--7--7--7--7--|-----------0--x--7--7--7--7--7--|
D|--7--x--7--0--x--7--7--7--7--7--|--------7--0--x--7--7--7--7--7--|
A|-----x--7-----------------------|--7--x--7-----------------------|
E|--------------------------------|--0--x--------------------------|

1st Solo
        Let Ring-----------------|
e|------------------------------------------------|-------------------------|
B|-------8-----8-----8-----8-----8----------------|--7brbrbr-5-----5--------|
G|--7/9-----9-----9-----9-----9-----9--7br-----5--|-------------7-----5-----|
D|------------------------------------------7-----|----------------------7--|
A|------------------------------------------------|-------------------------|
E|------------------------------------------------|-------------------------|

e|---------------------------------------------12-----------------|
B|-------------------8-------8--------10--12b------12pbr------10--|
G|--------5--7/9--9-----8/9-----9/11----------------------11------|
D|--7--7----------------------------------------------------------|
A|----------------------------------------------------------------|
E|----------------------------------------------------------------|

e|----------------------------------------|--12b--12b------------------------|
B|---------10--12--12pbr--10--12------10--|------------12--15--14--12------12|
G|--10/11-------------------------11------|----------------------------14----|
D|----------------------------------------|----------------------------------|
A|----------------------------------------|----------------------------------|
E|----------------------------------------|----------------------------------|

e|------------12-------------12----------------------------------------------|
B|--15b--15b------15p12----------15p12----------14--14--14--14--14--12-------|
G|-----------------------14-------------14------14--14--14--14--14--12-------|
D|------------------------------------------14--------------------------14-14|
A|---------------------------------------------------------------------------|
E|---------------------------------------------------------------------------|

e|---------------------------------------------|-----------------------------|
B|---------------------------------------8-----|-----8-----10br-----9--------|
G|--9--7------------------------------7-----9--|--9-----9--------8-----8-----|
D|--------9--8--7\5-----------5--7/9-----------|-----------------------------|
A|-------------------7--5--7-------------------|-----------------------------|
E|---------------------------------------------|-----------------------------|

e|-----------------------|
B|-----------------------|
G|-----------------------|
D|--5--------------------|
A|-----5--7--------------|
E|-----------7--6--5--3--|

1st Verse
e|-----------------------------|----------------------------------|
B|--------------7--8--8--7--7--|--------------7--8--8--7--7--8----|
G|------2---0---7--7--7--7--7--|------2---0---7--7--7--7--7--7----|
D|------2---0---7--7--7--7--7--|------2---0---7--7--7--7--7--7----|
A|--2---0----------------------|--2---0---------------------------|
E|--0--------------------------|--0-------------------------------|

e|-----------------------------|-----------------------------|
B|--------------7--8--8--7--7--|--------------7--8--8--7--7--|
G|------2---0---7--7--7--7--7--|------2---0---7--7--7--7--7--|
D|------2---0---7--7--7--7--7--|------2---0---7--7--7--7--7--|
A|--2---0----------------------|--2---0----------------------|
E|--0--------------------------|--0--------------------------|

1st Chorus
e|-----------------------|--------------3---------|-----------------------|
B|-----------------------|--------------3---------|-----------------------|
G|--2--5--4--2--5--4--2--|--2--5--4--2------4--2--|--2--5--4--2--5--4--2--|
D|--2--5--4--2--5--4--2--|--2--5--4--2------4--2--|--2--5--4--2--5--4--2--|
A|--0--------0--------0--|--0--------0---------0--|--0--------0--------0--|
E|-----------------------|------------------------|-----------------------|

e|-----------------------|-----------------------|--------------------------|
B|-----------------------|-----------------------|--------------------------|
G|--2--5--4--2--5--4--2--|--4--7--6--4--7--6--4--|-----------------------2--|
D|--2--5--4--2--5--4--2--|--4--7--6--4--7--6--4--|--5--5--5--5--5--5--5--2--|
A|--0--------0--------0--|-----------------------|--5--5--5--5--5--5--5--0--|
E|-----------------------|-----------------------|--3--3--3--3--3--3--3-----|

e|-----------------------------|-----------------------------------|
B|--------------7--8--8--7--7--|-----------------------------------|
G|------2---0---7--7--7--7--7--|------2---0--0---------------------|
D|------2---0---7--7--7--7--7--|------2---0------2--0--------------|
A|--2---0----------------------|--2---0----------------2--1--0-----|
E|--0--------------------------|--0-----------------------------3--|

2nd Verse
e|-----------------------------|----------------------------------|
B|--------------7--8--8--7--7--|--------------7--8--8--7--7--8----|
G|------2---0---7--7--7--7--7--|------2---0---7--7--7--7--7--7----|
D|------2---0---7--7--7--7--7--|------2---0---7--7--7--7--7--7----|
A|--2---0----------------------|--2---0---------------------------|
E|--0--------------------------|--0-------------------------------|

e|-----------------------------|-----------------------------|
B|--------------7--8--8--7--7--|--------------7--8--8--7--7--|
G|------2---0---7--7--7--7--7--|------2---0---7--7--7--7--7--|
D|------2---0---7--7--7--7--7--|------2---0---7--7--7--7--7--|
A|--2---0----------------------|--2---0----------------------|
E|--0--------------------------|--0--------------------------|

2nd Chorus
e|-----------------------|--------------3---------|-----------------------|
B|-----------------------|--------------3---------|-----------------------|
G|--2--5--4--2--5--4--2--|--2--5--4--2------4--2--|--2--5--4--2--5--4--2--|
D|--2--5--4--2--5--4--2--|--2--5--4--2------4--2--|--2--5--4--2--5--4--2--|
A|--0--------0--------0--|--0--------0---------0--|--0--------0--------0--|
E|-----------------------|------------------------|-----------------------|

e|-----------------------|-----------------------|--------------------------|
B|-----------------------|-----------------------|--------------------------|
G|--2--5--4--2--5--4--2--|--4--7--6--4--7--6--4--|-----------------------2--|
D|--2--5--4--2--5--4--2--|--4--7--6--4--7--6--4--|--5--5--5--5--5--5--5--2--|
A|--0--------0--------0--|-----------------------|--5--5--5--5--5--5--5--0--|
E|-----------------------|-----------------------|--3--3--3--3--3--3--3-----|

e|---------------------------------|-----------------------------------|
B|------------------7--8--8--7--7--|-----------------7--8--8--7--7--7--|
G|------------0--x--7--7--7--7--7--|-----------0--x--7--7--7--7--7--7--|
D|--------7---0--x--7--7--7--7--7--|--------7--0--x--7--7--7--7--7--7--|
A|--7--x--7------------------------|--7--x--7--------------------------|
E|--0--x---------------------------|--0--x-----------------------------|

e|--------------------------------|-----------------------------------|
B|--8--------------7--8--8--7--7--|-----------------------------------|
G|--7--------0--x--7--7--7--7--7--|-----------0--0--------------------|
D|--7--x--7--0--x--7--7--7--7--7--|--------7--0-----2--0--------------|
A|-----x--7-----------------------|--7--x--7--------------2--1--0-----|
E|--------------------------------|--0--x--------------------------3--|

Main Solo
e|-----------------------------|----------------------------------|
B|--------------7--8--8--7--7--|--------------7--8--8--7--7--8----|
G|----------0---7--7--7--7--7--|------2---0---7--7--7--7--7--7----|
D|------7---0---7--7--7--7--7--|------2---0---7--7--7--7--7--7----|
A|--2---7----------------------|--2---0---------------------------|
E|--0--------------------------|--0-------------------------------|

e|-----------------------------|-----------------------------|
B|--------------7--8--8--7--7--|--------------7--8--8--7--7--|
G|------2---0---7--7--7--7--7--|------2---0---7--7--7--7--7--|
D|------2---0---7--7--7--7--7--|------2---0---7--7--7--7--7--|
A|--2---0----------------------|--2---0----------------------|
E|--0--------------------------|--0--------------------------|

e|-----------------------|-----------------------|-----------------------|
B|-----------------------|-----------------------|-----------------------|
G|--2--5--4--2--5--4--2--|--2--5--4--2--5--4--2--|--2--5--4--2--5--4--2--|
D|--2--5--4--2--5--4--2--|--2--5--4--2--5--4--2--|--2--5--4--2--5--4--2--|
A|--0--------0--------0--|--0--------0--------0--|--0--------0--------0--|
E|-----------------------|-----------------------|-----------------------|

e|-----------------------|-----------------------|--------------------------|
B|-----------------------|-----------------------|--------------------------|
G|--2--5--4--2--5--4--2--|--4--7--6--4--7--6--4--|-----------------------2--|
D|--2--5--4--2--5--4--2--|--4--7--6--4--7--6--4--|--5--5--5--5--5--5--5--2--|
A|--0--------0--------0--|-----------------------|--5--5--5--5--5--5--5--0--|
E|-----------------------|-----------------------|--3--3--3--3--3--3--3-----|

e|-----------------------------|-----------------------------------|
B|--------------7--8--8--7--7--|-----------------------------------|
G|------2---0---7--7--7--7--7--|------2---0--0---------------------|
D|------2---0---7--7--7--7--7--|------2---0------2--0--------------|
A|--2---0----------------------|--2---0----------------2--1--0-----|
E|--0--------------------------|--0-----------------------------3--|

3rd Verse

e|-----------------------------|----------------------------------|
B|--------------7--8--8--7--7--|--------------7--8--8--7--7--8----|
G|------2---0---7--7--7--7--7--|------2---0---7--7--7--7--7--7----|
D|------2---0---7--7--7--7--7--|------2---0---7--7--7--7--7--7----|
A|--2---0----------------------|--2---0---------------------------|
E|--0--------------------------|--0-------------------------------|

e|-----------------------------|-----------------------------|
B|--------------7--8--8--7--7--|--------------7--8--8--7--7--|
G|------2---0---7--7--7--7--7--|------2---0---7--7--7--7--7--|
D|------2---0---7--7--7--7--7--|------2---0---7--7--7--7--7--|
A|--2---0----------------------|--2---0----------------------|
E|--0--------------------------|--0--------------------------|

3rd Chorus
e|-----------------------|-----------------------|-----------------------|
B|-----------------------|-----------------------|-----------------------|
G|--2--5--4--2--5--4--2--|--2--5--4--2--5--4--2--|--2--5--4--2--5--4--2--|
D|--2--5--4--2--5--4--2--|--2--5--4--2--5--4--2--|--2--5--4--2--5--4--2--|
A|--0--------0--------0--|--0--------0--------0--|--0--------0--------0--|
E|-----------------------|-----------------------|-----------------------|

e|-----------------------|-----------------------|--------------------------|
B|-----------------------|-----------------------|--------------------------|
G|--2--5--4--2--5--4--2--|--4--7--6--4--7--6--4--|-----------------------2--|
D|--2--5--4--2--5--4--2--|--4--7--6--4--7--6--4--|--5--5--5--5--5--5--5--2--|
A|--0--------0--------0--|-----------------------|--5--5--5--5--5--5--5--0--|
E|-----------------------|-----------------------|--3--3--3--3--3--3--3-----|

Outro
e|---------------------------------|--------------------------------|
B|------------------7--8--8--7--7--|-----------------7--8--8--7--7--|
G|------------0--x--7--7--7--7--7--|-----------0--x--7--7--7--7--7--|
D|--------7---0--x--7--7--7--7--7--|--------7--0--x--7--7--7--7--7--|
A|--7--x--7------------------------|--7--x--7-----------------------|
E|--0--x---------------------------|--0--x--------------------------|

e|--------------------------------|-----------------------------------|
B|--8--------------7--8--8--7--7--|-----------------------------------|
G|--7--------0--x--7--7--7--7--7--|-----------0--0--------------------|
D|--7--x--7--0--x--7--7--7--7--7--|--------7--0-----2--0--------------|
A|-----x--7-----------------------|--7--x--7--------------2--1--0-----|
E|--------------------------------|--0--x--------------------------3--|

e|--------------------------|
B|--------------------------|
G|--0-----------------------|
D|-----2--0-----------------|
A|-----------2--1--0-----2--|
E|--------------------3--0--|



************************************

| /   slide up
| \   slide down
| h   hammer-on
| p   pull-off
| ~   vibrato
| +   harmonic
| x   Mute note
| b   Bend
| pb  Pre-bend
| br  Bend release
| pbr Pre-bend release
| brb Bend release bend
| +ph Pinch harmonic
************************************

Intro

E      A   G   D   Dsus   D   Dsus

E      A   G   D   Dsus   D   Dsus

E      A   G   D   Dsus   D   Dsus

E      A   G   D   Dsus   D  

1st Solo

A   C   B   A    C    B   A

A   C   B   A    C    B   A

A   C   B   A    C    B   A

A   C   B   A    C    B   A

B    D    Db   B    D    Db   B

G    A

E      A   G   D   Dsus   D 

E      A   G    N. C.

1st Verse

E   A      G        D  Dsus    D        E        A G    
I don't need no woman to tie me down

        D   Dsus   D   Dsus
 to long 

E A    G           D    Dsus    D      E   G   A
I just gotta get out on the road 

D   Dsus   D   Dsus
on my own Yeah 

1st Chorus

A     C     B   A C     B A 
but you need a man baby 

       C   B   A    C B C   A
and I need a woman too 

C       B     A   C    B    A
why don't we sit down lady 



       B       C     A       C          B    A
and try to see things through yeah 

B     D     Db B D         Db B   G         A         N.C.              E         A    G
will somebody please tell me who is right? who's right or wrong?

D     Dsus   D   Dsus     E   A   G    N.C. 
who is right or wrong? yeah 

2nd Verse
E     A      G        D  Dsus    D        E        A G 
You said you wanted me to be your 

D   Dsus   D   Dsus
only man 

E     A      G        D  Dsus    D        E        A G 
and then you called me up and said goodbye 

D   Dsus   D   Dsus
I don't understand no 

2nd Chorus

A     C     B   A C     B A 
but you need a man baby 

       C   B   A    C B C   A
and I need a woman too 

C       B     A   C    B    A
why don't we sit down lady 

      B       C     A       C          B    A
and try to see things through yeah 

B     D     Db B D         Db B   G         A         N.C.              E         A    G
will somebody please tell me who is right? who's right or wrong?

D     Dsus   D   Dsus     E   A   G    N.C. 
who is right or wrong? yeah 

E      A   G   D   Dsus   D   Dsus

E      A   G   N.C.


Main Solo

E      A   G   D   Dsus   D   Dsus

E      A   G   D   Dsus   D   Dsus

E      A   G   D   Dsus   D   Dsus

E      A   G   D   Dsus   D  

A   C   B   A    C    B   A

A   C   B   A    C    B   A

A   C   B   A    C    B   A

A   C   B   A    C    B   A

B    D    Db   B    D    Db   B

G    A

E      A   G   D   Dsus   D 

E      A   G    N. C.

3rd Verse

E     A      G        D  Dsus    D        E        A G 
Can you tell me why we 

D   Dsus   D   Dsus
fell apart

E     A      G        D  Dsus    D        E        A G 
 let's get together woman 

D   Dsus   D   Dsus
and make a brand new start yeah 

3rd Chorus
A     C     B   A C     B A 
but you need a man baby 

       C   B   A    C B C   A
and I need a woman too 

C       B     A   C    B    A
why don't we sit down lady 

      B       C     A       C          B    A
and try to see things through yeah 

B     D     Db B D         Db B              G         A         N.C.           E         A    G
will somebody please please tell me who is right? who's right or wrong? 

D   Dsus   D   Dsus         E   A   G
who is right or wrong? 

D   Dsus   D   Dsus         E       A   G      N.C.     E
tell me who's right or wrong
comments
We did not receive enough feedback on this tab! Please rate:
print report bad tab
1 2 3 4 5
I want to post or [tab]
guest
You may want to rate the tab now too:
select rating
Please do not post tabs as comments. Select "correction" instead!