Oops, an error
Loading. Please wait.

Somebodys Baby Tab

ver2
ver2

Whole song

More versions @911Tabs.com
8,334 views 6 this week
2 commentsread comments
1 2 3 4 5
excellent!
x 6
Autoscroll
+/-
esc
set tempo
stop
Difficulty
intermediate
Hey! There's an official Ultimate Guitar app which is ideal
for learning songs when you're away from computer. Get the app
WARNING: You are trying to view
                                    content from Ultimate-Guitar.com
                                    in an unauthorized application,
                                    which is prohibited.

                                    Please use an official Ultimate
                                    Guitar Tabs application for iPhone,
                                    iPad or Android to access legitimate
                                    chords, guitar, bass, and drum tabs
                                    from Ultimate-Guitar.com database.

                                    Type "ultimate guitar tabs" in Apple
                                    App Store's or Android Market's
                                    search to find the application.
Intro

e|--------------------------------------------------------|
B|----0--------0----0------0-----0-------0----0------0----|
G|---0-0-----0--0--0-0----0-0---0-0-----0-0--0-0----0-0---|
D|-------0h2-----------0h2----------0h2----------0h2------|
A|--3-------------3------------3------------3-------------|
E|--------------------------------------------------------|

Verse 1

e|--------------------------------------------------------------------------------|
B|----0--------0----0------0-----0-------0----0------0-----0------0----0------0---|
G|---0-0-----0--0--0-0----0-0---0-0-----0-0--0-0----0-0---0-0----0-0--0-0----0-0--|
D|-------0h2-----------0h2----------0h2----------0h2----------0h2---------0h2-----|
A|--3-------------3------------0------------0-------------------------------------|
E|------------------------------------------------------1------------1------------|

e|-----------------------------|
B|----0-------0-----0-------0--|
G|---0-0-----0-0---0-0-----0-0-|
D|-------0h2-----------0h2-----|
A|--3------------3-------------|
E|-----------------------------|

e|--------------------------------------------------------------------------------|
B|----0--------0----0------0-----0-------0----0------0-----0------0----0------0---|
G|---0-0-----0--0--0-0----0-0---0-0-----0-0--0-0----0-0---0-0----0-0--0-0----0-0--|
D|-------0h2-----------0h2----------0h2----------0h2----------0h2---------0h2-----|
A|--3-------------3------------0------------0-------------------------------------|
E|------------------------------------------------------1------------1------------|

e|-----------------------------|
B|----0-------0-----0-------0--|
G|---0-0-----0-0---0-0-----0-0-|
D|-------0h2-----------0h2-----|
A|--3------------3-------------|
E|-----------------------------|


Chorus

e|---------------------------------------------------------------------------------|
B|----1------1----1------1-----1-----1----1-------1p0----1------1----1-----1-------|
G|---0-0----0-0--0-0----0-0---0-0---0-0--0-0----0-------0-0----0-0--0-0---0-0------|
D|-------0h2---------0h2---------0h2---------0h2------------0h2---------0h2--------|
A|---------------------------0----------0------------------------------------------|
E|-1------------1-------------------------------------1------------1---------------|

e|---------------------------------------------------|
B|----1------1-----1-----1-----1-----1----1-----1----|
G|---0-0----0-0---0-0---0-0---0-0---0-0--0-0---0-0---|
D|-------0h2---------0h2---------0h2--------0h2------|
A|-0------------------------3-----------3------------|
E|--------------3------------------------------------|


Verse 2

e|--------------------------------------------------------------------------------|
B|----0--------0----0------0-----0-------0----0------0-----0------0----0------0---|
G|---0-0-----0--0--0-0----0-0---0-0-----0-0--0-0----0-0---0-0----0-0--0-0----0-0--|
D|-------0h2-----------0h2----------0h2----------0h2----------0h2---------0h2-----|
A|--3-------------3------------0------------0-------------------------------------|
E|------------------------------------------------------1------------1------------|

e|-----------------------------|
B|----0-------0-----0-------0--|
G|---0-0-----0-0---0-0-----0-0-|
D|-------0h2-----------0h2-----|
A|--3------------3-------------|
E|-----------------------------|

e|--------------------------------------------------------------------------------|
B|----0--------0----0------0-----0-------0----0------0-----0------0----0------0---|
G|---0-0-----0--0--0-0----0-0---0-0-----0-0--0-0----0-0---0-0----0-0--0-0----0-0--|
D|-------0h2-----------0h2----------0h2----------0h2----------0h2---------0h2-----|
A|--3-------------3------------0------------0-------------------------------------|
E|------------------------------------------------------1------------1------------|

e|-----------------------------|
B|----0-------0-----0-------0--|
G|---0-0-----0-0---0-0-----0-0-|
D|-------0h2-----------0h2-----|
A|--3------------3-------------|
E|-----------------------------|


Chorus

e|---------------------------------------------------------------------------------|
B|----1------1----1------1-----1-----1----1-------1p0----1------1----1-----1-------|
G|---0-0----0-0--0-0----0-0---0-0---0-0--0-0----0-------0-0----0-0--0-0---0-0------|
D|-------0h2---------0h2---------0h2---------0h2------------0h2---------0h2--------|
A|---------------------------0----------0------------------------------------------|
E|-1------------1-------------------------------------1------------1---------------|

e|---------------------------------------------------|
B|----1------1-----1-----1-----1-----1----1-----1----|
G|---0-0----0-0---0-0---0-0---0-0---0-0--0-0---0-0---|
D|-------0h2---------0h2---------0h2--------0h2------|
A|-0------------------------3-----------3------------|
E|--------------3------------------------------------|


Bridge

e|--------------------------------------------------------------------------------|
B|----0--------0----0------0-----0-------0----0------0-----0------0----0------0---|
G|---0-0-----0--0--0-0----0-0---0-0-----0-0--0-0----0-0---0-0----0-0--0-0----0-0--|
D|-------0h2-----------0h2----------0h2----------0h2----------0h2---------0h2-----|
A|--3-------------3------------0------------0-------------------------------------|
E|------------------------------------------------------1------------1------------|

e|-----------------------------|
B|----0-------0-----0-------0--|
G|---0-0-----0-0---0-0-----0-0-|
D|-------0h2-----------0h2-----|
A|--3------------3-------------|
E|-----------------------------|

e|--------------------------------------------------------------------------------|
B|----0--------0----0------0-----0-------0----0------0-----0------0----0------0---|
G|---0-0-----0--0--0-0----0-0---0-0-----0-0--0-0----0-0---0-0----0-0--0-0----0-0--|
D|-------0h2-----------0h2----------0h2----------0h2----------0h2---------0h2-----|
A|--3-------------3------------0------------0-------------------------------------|
E|------------------------------------------------------1------------1------------|

e|-----------------------------------------------------|
B|----0-------0-----0-------0----0-----0----0-----0----|
G|---0-0-----0-0---0-0-----0-0--0-0---0-0--0-0---0-0---|
D|-------0h2-----------0h2---------0h2--------0h2------|
A|--3------------3-------------3----------3------------|
E|-----------------------------------------------------|



Verse 3

e|------------------------------------------------------------------------------|
B|------------------------------------------------------------------------------|
G|---0---------0--------0--------0--------0--------0--------0--------0------0---|
D|-----0-0h2----0-0h2----0-0h2----0-0h2----0-0h2----0-0h2----0-0h2----0-0h2---0-|
A|--3--------3--------0--------0--------------------------3--------3------------|
E|--------------------------------------1--------1------------------------------|

e|--------------------------------------------------------------------------------------|
B|--------------------------------------------------------------------------------------|
G|---0---------0--------0--------0--------0-------0-------0-----0-------0-----0-------0-|
D|----0-0h2-----0-0h2----0-0h2----0-0h2----0-0h2---0-0h2-0-0-----0-0h2-0-0-----0-0h2-0-0|
A|-3--------3---------0--------0------------------------------3------------3------------|
E|--------------------------------------1--------1--------------------------------------|


Chorus

e|---------------------------------------------------------------------------------|
B|----1------1----1------1-----1-----1----1-------1p0----1------1----1-----1-------|
G|---0-0----0-0--0-0----0-0---0-0---0-0--0-0----0-------0-0----0-0--0-0---0-0------|
D|-------0h2---------0h2---------0h2---------0h2------------0h2---------0h2--------|
A|---------------------------0----------0------------------------------------------|
E|-1------------1-------------------------------------1------------1---------------|

e|---------------------------------------------------|
B|----1------1-----1-----1-----1-----1----1-----0----|
G|---0-0----0-0---0-0---0-0---0-0---0-0--0-0---0-0---|
D|-------0h2---------0h2---------0h2--------0h2------|
A|-0------------------------3-----------3------------|
E|--------------3------------------------------------|


Outro

e|-----3---------------3----------------3-----------------3------------------|
B|---------------1--------------1----------------1-----------------1---------|
G|----0--0-----0--0---0--0----0--0----0--0-----0--0-----0---0----0---0-------|
D|---------0h2-------------0h2-------------0h2-------------------------------|
A|--3--------------3----------------0-----------------0--------2-------------|
E|---------------------------------------------------------------------------|

e|-----3---------------3----------------3------------------------------------|
B|---------------1--------------1----------------1--------1---------1--------|
G|----0--0-----0--0---0--0----0--0----0--0-----0--0-----0---0-----0---0------|
D|---------0h2-------------0h2-------------0h2-------------------------------|
A|--3--------------3----------------0-----------------0---------2------------|
E|---------------------------------------------------------------------------|

e|-----3---------------3----------------3------------------------------------|
B|---------------1--------------1----------------1--------1---------1--------|
G|----0--0-----0--0---0--0----0--0----0--0-----0--0-----0---0-----0---0------|
D|---------0h2-------------0h2-------------0h2-------------------------------|
A|--3--------------3----------------0-----------------0---------2------------|
E|---------------------------------------------------------------------------|

e|-----3---------------3----------------3------------------------------------|
B|---------------1--------------1----------------1--------1---------1------1-|
G|----0--0-----0--0---0--0----0--0----0--0-----0--0-----0---0-----0---0----0-|
D|---------0h2-------------0h2-------------0h2-----------------------------2-|
A|--3--------------3----------------0-----------------0---------2----------3-|
E|---------------------------------------------------------------------------|
comments
print report bad tab
2 comments total.
0 reply
JPriceless101 wrote on November 9 2008, 07:10 pm

Excellent tab!

0 reply
AliceHum3 wrote on May 16 2014, 04:48 pm

Well done!!

I want to post or [tab]
guest
You may want to rate the tab now too:
select rating
Please do not post tabs as comments. Select "correction" instead!