Oops, an error
Loading. Please wait.

A Little Bit Longer Tab

ver1
ver1

Album

Solo

Whole song

More versions @911Tabs.com
43,317 views 3 this week
7 commentsread comments
1 2 3 4 5
worth learning
x 11
Autoscroll
+/-
esc
set tempo
stop
Contributor
WARNING: You are trying to view
                                    content from Ultimate-Guitar.com
                                    in an unauthorized application,
                                    which is prohibited.

                                    Please use an official Ultimate
                                    Guitar Tabs application for iPhone,
                                    iPad or Android to access legitimate
                                    chords, guitar, bass, and drum tabs
                                    from Ultimate-Guitar.com database.

                                    Type "ultimate guitar tabs" in Apple
                                    App Store's or Android Market's
                                    search to find the application.
----------------------------------------------------------------------------
TRACK #1: BB GOOD
----------------------------------------------------------------------------
Tabbed by: Drool


Intro

   B5   D#5 E5        A5      B5   D#5 E5         A5  A#5
e|------------|-------------|------------|---------------|
B|------------|-------------|------------|---------------|
G|-------8--9-|-9-----------|-------8--9-|-9-9-----------|
D|-9-----8--9-|-9--xx-7--7--|-9-----8--9-|-9-9--xx-7--8--|
A|-9-----6--7-|-7--xx-7--7--|-9-----6--7-|-7-7--xx-7--8--|
E|-7----------|----xx-5--5--|-7----------|------xx-5--6--|




Verse

   B5   D#5 E5       F#5  B5       D#5 E5           A5
e|------------|-------------|-------------|---------------|
B|------------|-------------|-------------|---------------|
G|-------8--9-|-9-----11----|-------8--9--|-9-9-----------|
D|-9-----8--9-|-9-----11----|-9-----8--9--|-9-9--xx-7--7--|
A|-9-----6--7-|-7-----9---9-|-9-----6--7--|-7-7--xx-7--7--|
E|-7----------|-----------7-|-7-----------|------xx-5--5--|

   B5   D#5 E5       F#5  B5       D#5 E5           A5 A#5
e|------------|-------------|-------------|---------------|
B|------------|-------------|-------------|---------------|
G|-------8--9-|-9-----11----|-------8--9--|-9-9-----------|
D|-9-----8--9-|-9-----11----|-9-----8--9--|-9-9--xx-7--8--|
A|-9-----6--7-|-7-----9---9-|-9-----6--7--|-7-7--xx-7--8--|
E|-7----------|-----------7-|-7-----------|------xx-5--6--|




Chorus x 2

   B5   D#5 E5        A5      B5   D#5 E5         A5  A#5
e|------------|-------------|------------|---------------|
B|------------|-------------|------------|---------------|
G|-------8--9-|-9-----------|-------8--9-|-9-9-----------|
D|-9-----8--9-|-9--xx-7--7--|-9-----8--9-|-9-9--xx-7--8--|
A|-9-----6--7-|-7--xx-7--7--|-9-----6--7-|-7-7--xx-7--8--|
E|-7----------|----xx-5--5--|-7----------|------xx-5--6--|




Post-Chorus

  *Rhythm Guitar plays chorus progression*

e|-----------------|-----------------|-------------------|---------|
B|-----------------|-----------------|-------------------|--11^12--|
G|--4/6-----8------|--8/9-------8----|---11------9-------|---------|
D|------7----------|-------11-----9--|------13-----11-11-|---------|
A|------------9-9--|-----------------|-------------------|---------|
E|-----------------|-----------------|-------------------|---------|
                                                          Slow bend from
                                                          Bb up to B



Verse

   B5   D#5 E5       F#5  B5       D#5 E5           A5
e|------------|-------------|-------------|---------------|
B|------------|-------------|-------------|---------------|
G|-------8--9-|-9-----11----|-------8--9--|-9-9-----------|
D|-9-----8--9-|-9-----11----|-9-----8--9--|-9-9--xx-7--7--|
A|-9-----6--7-|-7-----9---9-|-9-----6--7--|-7-7--xx-7--7--|
E|-7----------|-----------7-|-7-----------|------xx-5--5--|

   B5   D#5 E5       F#5  B5       D#5 E5           A5 A#5
e|------------|-------------|-------------|---------------|
B|------------|-------------|-------------|---------------|
G|-------8--9-|-9-----11----|-------8--9--|-9-9-----------|
D|-9-----8--9-|-9-----11----|-9-----8--9--|-9-9--xx-7--8--|
A|-9-----6--7-|-7-----9---9-|-9-----6--7--|-7-7--xx-7--8--|
E|-7----------|-----------7-|-7-----------|------xx-5--6--|

                                                    E5     A5
e|-----------------|-----------------|-----------------|---------|
B|-----------------|-----------------|-----------------|---------|
G|-----------------|-----------------|---------------9-|---------|
D|-----------------|-----------------|---------------9-|---7-7-7-|
A|-----------6-6-7-|-7-7-7-7-7-9-9---|-----------6-6-7-|---7-7-7-|
E|-7-7-7-7-7-------|---------------7-|-7-7-7-7-7-------|---5-5-5-|
  |-PM----------------------------------------------|

   B5   D#5 E5       F#5  B5       D#5 E5           F#5
e|------------|-------------|-------------|---------------------|
B|------------|-------------|-------------|---------------------|
G|-------8--9-|-9-----11----|-------8--9--|-9-9-9-9-11-11-11-11-|
D|-9-----8--9-|-9-----11----|-9-----8--9--|-9-9-9-9-11-11-11-11-|
A|-9-----6--7-|-7-----9---9-|-9-----6--7--|-7-7-7-7-9--9--9--9--|
E|-7----------|-----------7-|-7-----------|---------------------|




Chorus

   B5   D#5 E5        A5      B5   D#5 E5         A5  A#5
e|------------|-------------|------------|---------------|
B|------------|-------------|------------|---------------|
G|-------8--9-|-9-----------|-------8--9-|-9-9-----------|
D|-9-----8--9-|-9--xx-7--7--|-9-----8--9-|-9-9--xx-7--8--|
A|-9-----6--7-|-7--xx-7--7--|-9-----6--7-|-7-7--xx-7--8--|
E|-7----------|----xx-5--5--|-7----------|------xx-5--6--|


   B5   D#5 E5        A5      B5   D#5 E5         A5  G#5
e|------------|-------------|------------|---------------|
B|------------|-------------|------------|---------------|
G|-------8--9-|-9-----------|-------8--9-|-9-9-----------|
D|-9-----8--9-|-9--xx-7--7--|-9-----8--9-|-9-9--xx-7--6--|
A|-9-----6--7-|-7--xx-7--7--|-9-----6--7-|-7-7--xx-7--6--|
E|-7----------|----xx-5--5--|-7----------|------xx-5--4--|




Bridge

   *Acoustic Nylon Guitar

   B     D#m E                B     D#m E
e|-------------|------------|-------------|------------|
B|--------7--9-|------------|--------7--9-|------------|
G|-8------8--9-|------------|-8------8--9-|------------|
D|-9-----------|------------|-9-----------|------------|
A|--------6--7-|------------|--------6--7-|------------|
E|-7-----------|------------|-7-----------|------------|

   B     D#m E                B     
e|-------------|------------|-------------|------------|
B|--------7--9-|------------|-------------|------------|
G|-8------8--9-|------------|-8-----------|------------|
D|-9-----------|------------|-9-----------|------------|
A|--------6--7-|------------|-------------|------------|
E|-7-----------|------------|-7-----------|------------|




Guitar Solo

Rhythm Guitar:

   B5        D#5 E5          A5        B5        D#5 E5          A5  A#5
e|-----------------|-----------------|-----------------|-----------------|
B|-----------------|-----------------|-----------------|-----------------|
G|-----------8-8-9-|-9-9-9-9---------|-----------8-8-9-|-9-9-9-9---------|
D|-9-9-9-9-9-8-8-9-|-9-9-9-9-7-7-7-7-|-9-9-9-9-9-8-8-9-|-9-9-9-9-7-7-8-8-|
A|-9-9-9-9-9-6-6-7-|-7-7-7-7-7-7-7-7-|-9-9-9-9-9-6-6-7-|-7-7-7-7-7-7-8-8-|
E|-7-7-7-7-7-------|---------5-5-5-5-|-7-7-7-7-7-------|---------5-5-6-6-|

   B5        D#5 E5          A5        B5        D#5 E5
e|-----------------|-----------------|-----------------|-----------------|
B|-----------------|-----------------|-----------------|-----------------|
G|-----------8-8-9-|-9-9-9-9---------|-----------8-8-9-|-9-9-9-9-9-9-9-9-|
D|-9-9-9-9-9-8-8-9-|-9-9-9-9-7-7-7-7-|-9-9-9-9-9-8-8-9-|-9-9-9-9-9-9-9-9-|
A|-9-9-9-9-9-6-6-7-|-7-7-7-7-7-7-7-7-|-9-9-9-9-9-6-6-7-|-7-7-7-7-7-7-7-7-|
E|-7-7-7-7-7-------|---------5-5-5-5-|-7-7-7-7-7-------|-----------------|


Lead Guitar:

            B5          D#5 E5                 A5
e|--------|-----------------------|---------------------|
B|-----15-|-17^19-<17>------------|-------15\-----------|
G|-/16----|------------16---14----|-14-16-16\----14tr16-|
D|--------|-(FULL--------------16-|---------------------|
A|--------|---BEND)---------------|---------------------|
E|--------|-----------------------|---------------------|
  (Pickup)

   B5          D#5  E5                  A5     A#5
e|-----------------------|---------------------------|
B|-----------------------|---------------------------|
G|-(14)\10tr13------9^11-|-9\7/9--9--7--9^11p7-------|
D|-----------------------|---------------------9-9---|
A|-----------------------|---------------------------|
E|-----------------------|---------------------------|

   B5             D#5   E5                  A5
e|-------------------------|-----------------------|
B|-12----15-------15-------|-15-------17^19-~~~----|
G|-14/16----14-16----14-16-|----14-16--------------|
D|-------------------------|-----------------------|
A|-------------------------|-----------------------|
E|-------------------------|-----------------------|

   B5             D#5   E5          
e|-14/17-17-17-16-16-------|-17p16p14----------17^19-~~--|
B|-------------------15-16-|----------17p15h16-----------|
G|-------------------------|-----------------------------|
D|-------------------------|-----------------------------|
A|-------------------------|-----------------------------|
E|-------------------------|-----------------------------|

Chorus

   B5   D#5 E5        A5      B5   D#5 E5         A5  A#5
e|------------|-------------|------------|---------------|
B|------------|-------------|------------|---------------|
G|-------8--9-|-9-----------|-------8--9-|-9-9-----------|
D|-9-----8--9-|-9--xx-7--7--|-9-----8--9-|-9-9--xx-7--8--|
A|-9-----6--7-|-7--xx-7--7--|-9-----6--7-|-7-7--xx-7--8--|
E|-7----------|----xx-5--5--|-7----------|------xx-5--6--|

   B5   D#5 E5        A5      B5   D#5 E5       B7
e|------------|-------------|------------|-------------------------|
B|------------|-------------|------------|------/12-15-12-15-15-12-|
G|-------8--9-|-9-----------|-------8--9-|-9-9--/14----------------|
D|-9-----8--9-|-9--xx-7--7--|-9-----8--9-|-9-9---------------------|
A|-9-----6--7-|-7--xx-7--7--|-9-----6--7-|-7-7---------------------|
E|-7----------|----xx-5--5--|-7----------|-------------------------|

   B5        D#5 E5          A5        B5        D#5 E5          A5  A#5
e|-----------------|-----------------|-----------------|-----------------|
B|-----------------|-----------------|-----------------|-----------------|
G|-----------8-8-9-|-9-9-9-9---------|-----------8-8-9-|-9-9-9-9---------|
D|-9-9-9-9-9-8-8-9-|-9-9-9-9-7-7-7-7-|-9-9-9-9-9-8-8-9-|-9-9-9-9-7-7-8-8-|
A|-9-9-9-9-9-6-6-7-|-7-7-7-7-7-7-7-7-|-9-9-9-9-9-6-6-7-|-7-7-7-7-7-7-8-8-|
E|-7-7-7-7-7-------|---------5-5-5-5-|-7-7-7-7-7-------|---------5-5-6-6-|

   B5        D#5 E5          A5        B5        D#5 E5          A5  A#5
e|-----------------|-----------------|-----------------|-----------------|
B|-----------------|-----------------|-----------------|-----------------|
G|-----------8-8-9-|-9-9-9-9---------|-----------8-8-9-|-9-9-9-9---------|
D|-9-9-9-9-9-8-8-9-|-9-9-9-9-7-7-7-7-|-9-9-9-9-9-8-8-9-|-9-9-9-9-7-7-8-8-|
A|-9-9-9-9-9-6-6-7-|-7-7-7-7-7-7-7-7-|-9-9-9-9-9-6-6-7-|-7-7-7-7-7-7-8-8-|
E|-7-7-7-7-7-------|---------5-5-5-5-|-7-7-7-7-7-------|---------5-5-6-6-|


Outro

   B     D#m E                B     D#m E         A  A#
e|-------------|------------|-------------|-------------|
B|--------7--9-|-9----------|--------7--9-|-9-9---------|
G|-8------8--9-|-9----------|-8------8--9-|-9-9---6--7--|
D|-9-----------|------------|-9-----------|-------7--8--|
A|--------6--7-|-7----------|--------6--7-|-7-7---------|
E|-7-----------|------------|-7-----------|-------5--6--|

   B     D#m E                B     D#m E
e|-------------|------------|-------------|------------|
B|--------7--9-|-9----------|--------7--9-|------------|
G|-8------8--9-|-9----------|-8------8--9-|------------|
D|-9-----------|------------|-9-----------|------------|
A|--------6--7-|-7----------|--------6--7-|------------|
E|-7-----------|------------|-7-----------|------------|


----------------------------------------------------------------------------
TRACK #2:BURNIN' UP
----------------------------------------------------------------------------
Tabbed by: guitarchick212
VERSE:

e |-------------------------------------------------------------------|
B |-------------------------------------------------------------------|
G |---------------------7--X-X---7-7----------------------------------|
D |-----9--X-X---9-9----7--X-X---7-7----7--X-X----7-7----5--X-X----5-5|
A |-----9--X-X---9-9----5--X-X---5-5----7--X-X----7-7----5--X-X----5-5|
E |-----7--X-X---7-7--------------------5--X-X----5-5----3--X-X----3-3|

e |-------------------------------------------------------------------|
B |-------------------------------------------------------------------|
G |---------------------7--X-X---7-7----------------------------------|
D |-----9--X-X---9-9----7--X-X---7-7----7--X-X----7-7----5--X-X----5-5|
A |-----9--X-X---9-9----5--X-X---5-5----7--X-X----7-7----5--X-X----5-5|
E |-----7--X-X---7-7--------------------5--X-X----5-5----3--X-X----3-3|

CHORUS:


e |------------------------------------------------------------------|
B |------------------------------------------------------------------|
G |-------------------7-------7-7------------------------------------|
D |-----9------9-9----7-------7-7----7--------7-7----5--------5-5----|
A |-----9------9-9----5-------5-5----7--------7-7----5--------5-5----|
E |-----7------7-7-------------------5--------5-5----3--------3-3----|(2x)


VERSE 2:

e |-------------------------------------------------------------------|
B |-------------------------------------------------------------------|
G |---------------------7--X-X---7-7----------------------------------|
D |-----9--X-X---9-9----7--X-X---7-7----7--X-X----7-7----5--X-X----5-5|
A |-----9--X-X---9-9----5--X-X---5-5----7--X-X----7-7----5--X-X----5-5|
E |-----7--X-X---7-7--------------------5--X-X----5-5----3--X-X----3-3|


e |-------------------------------------------------------------------|
B |-------------------------------------------------------------------|
G |---------------------7--X-X---7-7----------------------------------|
D |-----9--X-X---9-9----7--X-X---7-7----7--X-X----7-7----5--X-X----5-5|
A |-----9--X-X---9-9----5--X-X---5-5----7--X-X----7-7----5--X-X----5-5|
E |-----7--X-X---7-7--------------------5--X-X----5-5----3--X-X----3-3|(2x)


CHORUS:

e |------------------------------------------------------------------|
B |------------------------------------------------------------------|
G |-------------------7-------7-7------------------------------------|
D |-----9------9-9----7-------7-7----7--------7-7----5--------5-5----|
A |-----9------9-9----5-------5-5----7--------7-7----5--------5-5----|
E |-----7------7-7-------------------5--------5-5----3--------3-3----|(2x)

BRIGDE:

e |------------------------------------------------------------------|
B |------------------------------------------------------------------|
G |------------------------------------------------------------------|
D |-----5--X-X--5-5----7--X-X--7-7----9--X--7--X--5------------------|
A |-----5--X-X--5-5----7--X-X--7-7----9--X--7--X--5------------------|
E |-----3--X-X--3-3----5--X-X--5-5----7--X--5--X--3------------------|(2x)


CHORUS:

 e|------------------------------------------------------------------|
B |------------------------------------------------------------------|
G |-------------------7-------7-7------------------------------------|
D |-----9------9-9----7-------7-7----7--------7-7----5--------5-5----|
A |-----9------9-9----5-------5-5----7--------7-7----5--------5-5----|
E |-----7------7-7-------------------5--------5-5----3--------3-3----|(6x)


----------------------------------------------------------------------------TRACK #3: SHELF
----------------------------------------------------------------------------


intro
e|------------------------------------------------------------------------------|
B|------------------------------------------------------------------------------|
G|-7----------------------7--------7--------------------------------------------|
D|-7----7----9---10---5---7---7----7--------------------------------------------|
A|-5----7----9---10---5---5---7----5--------------------------------------------|
E|------5----7---8----3-------5-------------------------------------------------|

1st verse
shes such a ..........give it a chance...cause youll never..
e|---------------------------------------------------------------------------------------|
B|---------------------------------------------------------------------------------------|
G|-7---------------7---------------------------------------------------------------------|
D|-7---4---5---7---7------4---5---7-------4---5---4---5----------------------------------|
A|-5---4---5---7---5------4---5---7-------4---5---4---5----------------------------------|
E|-----2---3---5----------2---3---5-------2---3---2---3----------------------------------|
chorus

e|------------------------------------------------------------------|
B|------------------------------------------------------------------|
G|-7--------------------------7------7--------------------7------7--|
D|-7---7-----9---10---5---7---7--7---7---9---10---5---7---7--7---7--|
A|-5---7-----9---10---5---7---5--7---5---9---10---5---7---5--7---5--|
E|-----5-----7---8----3---5------5-------7---8----3---5------5------|

  verses are the same
  chorus is the same

then this thing...(i really dont know what its called)

im tired of...
e|-------------------------------------------------------|
B|-------------------------------------------------------|
G|----------6----7-----------------7----9----------------|
D|-10--5----6-SL-7-------10---5-----7-SL-9--------7---5--|
A|-10--5----4----5--X3---10---5-----5----7---X6---7---5--|
E|-8---3-----------------8----3-------------------5---3--|

Chorus X2
  
----------------------------------------------------------------------------
TRACK #4: ONE MAN SHOW
----------------------------------------------------------------------------

Intro
e|---------------------------------|
B|---------------------------------|
G|---------------------------------|
D|--10-10---8-8---5-5---3-3---3/5--|
A|--10-10---8-8---5-5---3-3---3/5--|
E|--8--8----6-6---3-3---1-1---1/3--|

e|---------------------------------|
B|---------------------------------|
G|--8-8---10-10---8-8---12---------|
D|--8-8---10-10---8-8---12-x8------| x2
A|--6-6---8--8----6-6---10---------|
E|---------------------------------|

Verse
	"I feel like I'm gonna..."
e|---------------------------------|
B|---------------------------------|
G|--8-8---10-10-----------8--------|
D|--8-8---10-10---10-10---8-10-10--| x4
A|--6-6---8--8----10-10---6-10-10--|
E|----------------8--8------8--8---|

Chorus
	"I'm a one man show..."
e|------------------------------------------|
B|------------------------------------------|
G|--------------------10-------8------7-----|
D|---10-------8-------10-x16---8-x8---7-x8--| x2
A|---10-x16---8-x16---8--------6------5-----|
E|---8--------6-----------------------------|

Post Chorus
e|---------------------------------|
B|---------------------------------|
G|---------------------------------|
D|--10-10---8-8---5-5---3-3---3/5--|
A|--10-10---8-8---5-5---3-3---3/5--|
E|--8--8----6-6---3-3---1-1---1/3--|

e|---------------------------------|
B|---------------------------------|
G|--8-8---10-10---8-8---12---------|
D|--8-8---10-10---8-8---12-x8------| x2
A|--6-6---8--8----6-6---10---------|
E|---------------------------------|

Verse
	"Girl you broke my heart..."
e|---------------------------------|
B|---------------------------------|
G|--8-8---10-10-----------8--------|
D|--8-8---10-10---10-10---8-10-10--| x4
A|--6-6---8--8----10-10---6-10-10--|
E|----------------8--8------8--8---|

Chorus
	"I'm a one man show..."
e|------------------------------------------|
B|------------------------------------------|
G|--------------------10-------8------7-----|
D|---10-------8-------10-x16---8-x8---7-x8--| x2
A|---10-x16---8-x16---8--------6------5-----|
E|---8--------6-----------------------------|

Bridge
	"I was so blind..."
e|----------------------------------------|
B|----------------------------------------|
G|---5-------7-------8------7------5------|
D|---5-x16---7-x16---8-x8---7-x8---5-x16--|
A|---3-------5-------6------5------3------|
E|----------------------------------------|

e|-------------------------------------|
B|-------------------------------------|
G|---5-------7-------8------7------5~--|
D|---5-x16---7-x16---8-x8---7-x8---5~--|
A|---3-------5-------6------5------3~--|
E|-------------------------------------|

e|---------------|
B|---------------|
G|---------------|
D|---------------|(^=bend)
A|----------8~-6-|
E|---6^-6-4------|

Refrain
	"I'm a one man show..."
e|---------------------------------|
B|---------------------------------|
G|------------10-------8------7-7--|
D|---10-------10-x16---8-x8---7-7--|
A|---10-x24---8--------6------5-5--|
E|---8-----------------------------|
     pm-->
        
Chorus
	"I'm a one man show..."
e|------------------------------------------|
B|------------------------------------------|
G|--------------------10-------8------7-----|
D|---10-------8-------10-x16---8-x8---7-x8--| x3
A|---10-x16---8-x16---8--------6------5-----|
E|---8--------6-----------------------------|

Outro

e|-----------------------------------------|
B|-----------------------------------------|
G|-----------------------------------------|
D|--10-10---8-8---5-5---3-3---3/5---10-10--|
A|--10-10---8-8---5-5---3-3---3/5---10-10--|
E|--8--8----6-6---3-3---1-1---1/3---8--8---|


----------------------------------------------------------------------------
TRACK #5: LOVE BUG
----------------------------------------------------------------------------
Intro [plucking the strings.]

e|---------------------------------------------------------------------------|
B|---------------------------------------------------------------------------|
G|------------------------9--------------------------------------------------|
D|-----9--------7---------9 x4-----------------------------------------------| Do this 2 times
A|-----9 x2-----7 x2------7--------------------------------------------------|
E|-----7--------5------------------------------------------------------------|

Verse 1
e|---------------------------------------------------------------------------|
B|---------------------------------------------------------------------------|
G|------------------------9--------------------------------------------------|
D|-----9--------7---------9 x4-----------------------------------------------| Do this 4 times
A|-----9 x2-----7 x2------7--------------------------------------------------|
E|-----7--------5------------------------------------------------------------|

Chorus
e|---------------------------------------------------------------------------|
B|---------------------------------------------------------------------------|
G|-----9---------------------------9-----------------------------------------|
D|-----9 x4-----9---------7--------9 x4--------------------------------------| Do this 2 times
A|-----7--------9 x4------7 x4-----7-----------------------------------------|
E|--------------7---------5--------------------------------------------------|
Post Chorus
e|-------------------------------------------------------------------------------|
B|--------------------------14\------------------------------17--------------17--|
G|---8-9-9-9-8-6-4~--11-13-------8-9-9-9-8-6-4~--15h16-16-16-16--15h16-16-16-16--|
D|-------------------------------------------------------------------------------|
A|-------------------------------------------------------------------------------|
E|-------------------------------------------------------------------------------|

Inbetween Chorus and Verse 2
e|---------------------------------------------------------------------------|
B|---------------------------------------------------------------------------|
G|------------------------9--------------------------------------------------|
D|-----9--------7---------9 x4-----------------------------------------------| Do this 2 times
A|-----9 x2-----7 x2------7--------------------------------------------------|
E|-----7--------5------------------------------------------------------------|

 Verse 2
e|---------------------------------------------------------------------------|
B|---------------------------------------------------------------------------|
G|------------------------9--------------------------------------------------|
D|-----9--------7---------9 x4-----------------------------------------------| Do this 4 times
A|-----9 x2-----7 x2------7--------------------------------------------------|
E|-----7--------5------------------------------------------------------------|

Chorus
e|---------------------------------------------------------------------------|
B|---------------------------------------------------------------------------|
G|-----9---------------------------9-----------------------------------------|
D|-----9 x4-----9---------7--------9 x4--------------------------------------| Do this 2 times
A|-----7--------9 x4------7 x4-----7-----------------------------------------|
E|--------------7---------5--------------------------------------------------|

Repeat Verse 1
e|---------------------------------------------------------------------------|
B|---------------------------------------------------------------------------|
G|------------------------9--------------------------------------------------|
D|-----9--------7---------9 x4-----------------------------------------------| Do this 4 times
A|-----9 x2-----7 x2------7--------------------------------------------------|
E|-----7--------5------------------------------------------------------------|

Inbetween Repeat and Chorus
e|---------------------------------------------------------------------------|
B|---------------------------------------------------------------------------|
G|------------------------9--------------------------------------------------|
D|-----9--------7---------9 x4-----------------------------------------------| Do this 2 times
A|-----9 x2-----7 x2------7--------------------------------------------------|
E|-----7--------5------------------------------------------------------------|

Chorus [no words]
e|---------------------------------------------------------------------------|
B|---------------------------------------------------------------------------|
G|-----9---------------------------9-----------------------------------------|
D|-----9 x4-----9---------7--------9 x4--------------------------------------| Do this 2 times
A|-----7--------9 x4------7 x4-----7-----------------------------------------|
E|--------------7---------5--------------------------------------------------|

Chorus [with words]
e|---------------------------------------------------------------------------|
B|---------------------------------------------------------------------------|
G|-----9---------------------------9-----------------------------------------|
D|-----9 x4-----9---------7--------9 x4--------------------------------------| Do this 2 times
A|-----7--------9 x4------7 x4-----7-----------------------------------------|
E|--------------7---------5--------------------------------------------------|
SOLO:
EI------------------------------------------------------|
BI----------------9--10--12-10--9-----------------------|
GI---11b~~--11b~~-----------------11--11b~~--11b~~------|
DI------------------------------------------------------|
AI------------------------------------------------------|
EI------------------------------------------------------|

EI------------------------------------------------------------|
BI---9--10--12-10--9------------------------------------------|
GI--------------------11---11db+r-9------------9--11b~~--11b~-|
DI----------------------------------11--9h--11----------------|
AI------------------------------------------------------------|
EI------------------------------------------------------------|

EI-------------------------------------------------|
BI-------------------------------------------------|
GI---9---------------------------------------------|
DI-----11p--9--------------------------------------|
AI-------------------------------------------------|
EI-------------------------------------------------|

EI------------------------------------------------------|
BI----------------9--10--12-10--9-----------------------|
GI---11b~~--11b~~-----------------11--11b~~--11b~~------|
DI------------------------------------------------------|
AI------------------------------------------------------|
EI------------------------------------------------------|


EI--[--Staccatos----]-------------------------------------|
BI---9--10--12-10--9--------------------------------------|
GI--------------------11---11db+r-9---------9--11b~--11b~-|
DI---------------------------------11--9h-11--------------|
AI--------------------------------------------------------|
EI--------------------------------------------------------|

EI-------------------------------------------------|
BI-------------------------------------------------|
GI---9---------------------------------------------|
DI-----11p--9--------------------------------------|
AI-------------------------------------------------|
EI-------------------------------------------------|

----------------------------------------------------------------------------TRACK #6:TONIGHT


Intro:
|-----------------------------------|
|-----------------------------------|
|-9-9-989-9-9-989-9-9-989-9-9-14-13-| 2x
|-9-9-989-9-9-989-9-9-989-9-9-14-13-|
|-7-7-767-7-7-767-7-7-767-7-7-12-11-|
|-----------------------------------|

Verse:
|----------------------------------------------------------|
|----------------------------------------------------------|
|-6--------4-----------------6----------4------------------|
|-6--------4-------------7---6----------4----------------7-|
|-4--------2-------------7---4----------2----------------7-|
|------------------------5-------------------------------5-|
        so here we are again,  throwing punchlines no one wins
    as the morning sun begins to rise

Pre-chorus
|--------------------------------------------------------|
|--------------------------------------------------------|
|--------------------------------------------------------|
|------------------------------------------------------9-|
|------------------------------------------------------9-|
|-------------0-2-0-2----------0-2-0-2---3-4-3-4-3-4-3-7-|
We're fading fast,     and we won't     this out

Chorus:
|-----------------|
|-----------------|
|------4----------| 4x
|-2----4-8x-7-----|
|-2-8x-2----7-16x-|
|-0---------5-----|

play the intro..

The part where nick sings this line: "We don't have to fight
We just gotta try"
|------------------------------------------------------------|
|------------------------------------------------------------|
|-6--------------------------------6-------------------------|
|-6-8x-----------------7----4------6-8x---------------7----7-|
|-4--------------------7-8x-4-16x--4------------------7-8x-7-|
|----------------------5----2-------------------------5----5-|
      we don't have to fight            we just gotta try

the lines:
Well, there's no need to fight
We're just wasting time
(Tonight)
If you give it time
Well then maybe you'll find
(We might work this out)
Well, we know we're in love
So let's keep it alive
Keep it alive, keep it alive
I'm starting to see the morning light
We finally work this out
the riff is just the same as the intro...
except there's no...
|-------|
|-------|
|-14-13-|
|-14-13-|
|-12-11-|
|-------|
you just keep repeating this part...
|---------|
|---------|
|-9-9-989-|
|-9-9-989-|
|-7-7-767-|
|---------|

----------------------------------------------------------------------------
TRACK #7: CAN'T HAVE YOU

CHORDS USED:
B:x244xx / 799xxx
G:355xxx
A:577xxx
D:x577xx


    B                             G
You warned me that you were gonna leave
  B                      G
I never thought you would go
B                          G
I was blind but baby now I see
B                         G
Broke your heart but now I know
           A             G
That I was bein' such a fool (oooh)
            A              G
And that I didn't deserve you (oooh)

   D                     A
I don't wanna fall asleep
         G
'Cause I don't know if I'll get up
       D                   A
And I don't wanna cause a scene
         G
But I'm dyin' without your love
D                    A
Begging to hear your voice
G
Tell me you love me too
           D                 A
'Cause I'd rather just be alone
      G
If I know that I can't have you

B                                   G
Lookin' at the letter you that you left

(the letter that you left, will I ever get you back?)
B                              G
Wondering if I'll ever get you back

(oohaap, ooh ahh, oohaap, ooh ahh)
B                                 G
Dreamin' about when I'll see you next

(When will I see you next? Will I ever get you back?)
B                           G
Knowing that I never will forget

(I won't forget, I won't forget)
            A             G
That I was bein' such a fool (oooh)
           A                   G
And That I still don't deserve you (oooh)


  D                      A
I don't wanna fall asleep
          G
'Cause I don't know if I'll get up
      D                    A
And I don't wanna cause a scene
            G
'Cause I'm dyin' without your love, yeah
D                    A
Begging to hear your voice
G
Tell me you love me too
           D              A
'Cause I'd rather just be alone
     G
If I know that I can't have you


B                        G
   So tell me what we're fighting for
                                 D
'Cause we know that truth means so much more
                                     A
'Cause you would if you could, don't lie
B                                 G   
   'Cause I give everything that I've got left
                        D
To show you I mean what I have said
                    A
I know I was such a fool
                         G
But I can't live without you

Chorus 2x


SOLO:
YOU'LL KNOW WHERE IT IS...
e|--10--9------10--9------12--9------12--9------14--12----------------|
B|---------10---------10---------10---------10----------10------------|
G|--------------------------------------------------------------------|
D|--------------------------------------------------------------------|
A|--------------------------------------------------------------------|
E|--------------------------------------------------------------------|

e|--14-15-14-12------9--7--5--6--7--9---------------------------|
B|---------------10---------------------------------------------|
G|--------------------------------------8-8-8-8-----------------|
D|--------------------------------------------------------------|
A|--------------------------------------------------------------|
E|--------------------------------------------------------------|

Then, pause for Nick when he says "Cause i'd give everything that i've..." start playing 
after "i've"

e|--12--9------12--9------14--12------14-15-14-12-----9--7--5----------5--4--5~~~--|
B|---------10---------10----------10--------------10----------------5--------------|
G|---------------------------------------------------------------2-----------------|
D|---------------------------------------------------------------------------------|
A|---------------------------------------------------------------------------------|
E|---------------------------------------------------------------------------------|
----------------------------------------------------------------------------
TRACK #8 : VIDEO GIRL
----------------------------------------------------------------------------
CHORDS:
EM:022xxx
C:x355xx
G:355xxx
D:X577XX


Em                   
No matter what you should've known better 
C
Its gonna suck when the cameras stops rollin' 
G                                              D
And you find out soon that your treatment wasn't worth it. 
Em
they're all the same, they all want the money 
C
they're all the same, they live for the fame, honey 
G                                         D
they laugh at you when you're not even being funny 

C             G
everybody knows you 
Em                D
everybodys staring up at you 
C              G
and they know all you secrets
D
video girl 

Em                      C             G
Video girl,rocked my world for a whole 2 seconds 
D
but not right now 
Em           C             G
im not about to be another victim 
D
of video girl syndrome 

Em
Get out of my face 
C
Get out of my space 
G                  D
Its so plastic its a fact 
Em           C              G
Im not about to be another victim 
D
of video girl syndrome 

Em     
You know it's bad when your momma doesn't like her 
C
all your friends sayin' she's a liar 
G                           D
never ending phone calls aren't enough 
[it's not enough, it's not enough] 

Em
Move to LA 
C
Got no talent 
G                             D
Not even like you've won a Miss Teen Pageant 
Em            C             G            D
Daddy pays your bills but you still whine 
[still whine, still whine]

C             G
Everybody knows you 
Em                 D
everbodys staring up at you 
C                G
what happened to your plans?
Em               D
what happened to your plans?



Em                      C             G
Video girl,rocked my world for a whole 2 seconds 
D
but not right now 
Em           C             G
im not about to be another victim 
D
of video girl syndrome 

Em
Get out of my face 
C
Get out of my space 
G                  D
Its so plastic its a fact 
Em           C              G
Im not about to be another victim 
D
of video girl syndrome 

Em              C             G        
You are never gonna see me miss her 
D
Video Girl Syndrome 
[video girl] 
Em                 C                   G
Not about to be another victim of video girl syndrome 
D
Video Girl Syndrome
[video girl] 

Em                      C             G
Video girl,rocked my world for a whole 2 seconds 
D
but not right now 
Em           C             G
im not about to be another victim 
D
of video girl syndrome 

Em
Get out of my face 
C
Get out of my space 
G                  D
Its so plastic its a fact 
Em           C              G
Im not about to be another victim 
D
of video girl syndrome 

Em         C           G
Not gonna be anpother victim of 
D                        Em
Video Girl Syndrome  

----------------------------------------------------------------------------
TRACK #9:PUSHIN ME AWAY
----------------------------------------------------------------------------


   E5             C5
Run, run like you do
            A5
I'm chasing you
                     D5 
I'm on your tail I'm gaining faster
       E5
You're going no where
E5                     C5
Try to fix what you've done
              A5
Turn back the time

The night is calling
 D5                E5
And we're falling faster now

C5      G5
Pushing me away
D5
Every last word
      E5     D5         C5
Every single thing you say
        G5
Pushing me away
D5                       E5    D5      C5
Try to stop now but it's already too late
        G5
Pushing me away
       D5           E5         D5         C5
If you really don't care to say it to my face
        C5
Pushing me away
D5
Push push pushing me away


Stop
E5           C5
Tell me the truth
               A5
Cause im so confused
                      D5
Standing around these walls are
         E5             E5
Falling down and I need you
              C5
More than you know
            A5
Not letting go
               D5
Getting closer take my hand
    E5
And please just tell me why

(CHORUS)

E5           C5
   Push push pushing me away
E5           C5
   Push push pushing me away
E5           C5
   Push push pushing me away
E5           C5
   Push push pushing me away
E5           C5
   Push push pushing me away
E5           C5
   Push push pushing me away
E5           C5
   Push push pushing me away

(CHORUS)

C5         G5         D5 E5 D5
   Pushing me away
C5 G5 D5 E5 D5
D5(let it ring)


----------------------------------------------------------------------------
TRACK #10:SORRY (!)
----------------------------------------------------------------------------
intro - Dm Bb C A Bb F C

Verse 1
Dm                Bb
Broken hearts and last goodbyes 
C               A    
Restless nights but lullabies
Bb              G       C   
Helps make this pain go away
Dm           Bb 
I realize I let you down
C               A 
Told you that I'd be around
Bb                G          C 
Building up the strength just to say 
---------------------------------------
Chorus:
F    C 
I'm sorry
Dm                          C       Bb       F        G     (Dm C)     
For breaking all the promises that I wasn't around to keep.
F    C 
Its all me
Dm                          C       Bb       F        G 
This time is the last time that I will ever beg you to stay.
Bb                     C 
But your already on your way. (Dm Bb C A Bb F C) 
---------------------------------------
Verse 2:
Dm                   Bb
Filled with sorrow, filled with pain
C             A 
Knowing that I am to blame
Bb                   G            C 
For leaving your heart out in the rain
Dm                   Bb 
And I know your gonna walk away
C                       A 
And leave me with the price to pay
Bb             G            C  
But before you go I wanted to say 

Yeah! 
--------------------------------------
Chorus:
F          C
That I'm sorry
Dm                          C     Bb        F           G    (Dm C) 
For breaking all the promises that I wasn't around to keep
F       C 
Its all me
Dm                          C     Bb        F           G 
This time is the last time that I will ever beg you to stay.
Bb                       C 
But you're already on your way. 
-----------------------------------------
Bridge:
Bb             Dm          C
Can't make it alive on my own 
Bb
But if you have to go, then please girl
Dm             C 
Just leave me alone.
Bb                                           Dm         C
Cause I don't want to see you and me going our separate ways.
Bb 
I'm begging you to stay
Bb 
If it isn't too late 
---------------------------------------
Chorus:
F     C
I'm sorry
Dm                         C         Bb      F          C  (Dm C) 
For breaking all the promises that I wasn't around to keep.            
-----------------------------------------------
F      C 
Its all me
Dm                         C         Bb      F           C 
This time is the last time that I will ever beg you to stay.
Bb                      C 
But your already on your way. 
Bb                      F
But your already on your way...   


----------------------------------------------------------------------------
TRACK #11:GOT ME GOING CRAZY
----------------------------------------------------------------------------
Intro:

e|-----------------------------------------------------------|
B|-----------------------------------------------------------|
G|-----------------------------------------------------------|
D|-----------------------------------------------------------|
A|-----0--2-----------4--3--------0--2-----4--4--4--4--4--4--|
E|--2--------2--2--2-----------2-----------------------------|



Verse:

e|-----------------------------------------------------------|
B|-----------------------------------------------------------|
G|-----------------------------------------------------------|
D|-----------------------------------------------------------|      x2
A|-----0--2-----------4--3--------0--2-----4--4--4--4--4--4--|
E|--2--------2--2--2-----------2-----------------------------|



Chorus:

e|-----------------------------------------------------------------------------|
B|-----------------------------------------------------------------------------|
G|--7---------9----7---------9-------6-7-7-7-7-------------8-9-9-9-9--8-9-9-9--|
D|--7----7----9----7----7----9-------6-7-7-7-7--6-7-7-7----8-9-9-9-9--8-9-9-9--|
A|--5----7----7----5----7----7-------4-5-5-5-5--6-7-7-7-7--6-7-7-7-7--6-7-7-7--|
E|-------5--------------5-----------------------4-5-5-5-5----------------------|


e|-----------------------------------------------------------|
B|-----------------------------------------------------------|
G|--7----------------------9---------------------------------|
D|--7--(fade)---7----------9--(fade)-------------------------|
A|--5-----------7--(fade)--7---------------------------------|
E|--------------5--------------------------------------------|


Verse:

e|-----------------------------------------------------------|
B|-----------------------------------------------------------|
G|-----------------------------------------------------------|
D|-----------------------------------------------------------|     x2
A|-----0--2-----------4--3--------0--2-----4--4--4--4--4--4--|
E|--2--------2--2--2-----------2-----------------------------|



Chorus:

e|-----------------------------------------------------------------------------|
B|-----------------------------------------------------------------------------|
G|--7---------9----7---------9-------6-7-7-7-7-------------8-9-9-9-9--8-9-9-9--|
D|--7----7----9----7----7----9-------6-7-7-7-7--6-7-7-7-7--8-9-9-9-9--8-9-9-9--|
A|--5----7----7----5----7----7-------4-5-5-5-5--6-7-7-7-7--6-7-7-7-7--6-7-7-7--|
E|-------5--------------5-----------------------4-5-5-5-5----------------------|


e|----------------------------------------|
B|----------------------------------------|
G|--7----------------------9--------------|
D|--7--(fade)---7----------9--(fade)------|
A|--5-----------7--(fade)--7--------------|
E|--------------5-------------------------|



Repeat Intro:

e|-----------------------------------------------------------|
B|-----------------------------------------------------------|
G|-----------------------------------------------------------|
D|-----------------------------------------------------------|
A|-----0--2-----------4--3--------0--2-----4--4--4--4--4--4--|
E|--2--------2--2--2-----------2-----------------------------|



Solo:

e|----------------------------------------------------------------|
B|----------------------------------------------------------------|
G|----------------------------------------------------------------|
D|--0----2--4--7---9--11--11--9----2--4--6--7----18--16--14--11---|
A|----------------------------------------------------------------|
E|----------------------------------------------------------------|

e|----------------------------------|
B|----------------------------------|
G|----------------------------------|
D|--9--11--2--2--4--4--6--6--7--7---|
A|----------------------------------|
E|----------------------------------|





e|--------------------------------------------------|
B|--------------------------------------------------|
G|--------------------------------------------------|
D|--------------------------------------------------|
A|--4--5--5--5--5-----------------6--7--7--7--7-----|
E|-----------------4--5--5--5--5--------------------|

e|-----------------------------------------------------------|
B|-----------------------------------------------------------|
G|-----------------------------------------------------------|
D|-----------------------------------------------------------|
A|-----0--2-----------4--3--------0--2-----4--4--4--4--4--4--|
E|--2--------2--2--2-----------2-----------------------------|



Chorus:

e|----------------------------------------------------------------------|
B|----------------------------------------------------------------------|
G|--7-7-------9-----7-----9---6-7-7-7-7-------------8-9-9-9-9--8-9-9-9-9|
D|--7-7--7-7--9-x8--7--7--9---6-7-7-7-7--6-7-7-7-7--8-9-9-9-9--8-9-9-9-9|
A|--5-5--7-7--7-----5--7--7---4-5-5-5-5--6-7-7-7-7--6-7-7-7-7--6-7-7-7-7|
E|-------5-5-----------5-----------------4-5-5-5-5----------------------|

e|--------------------------------------------------------------------|
B|--------------------------------------------------------------------|
G|--7----------------------7---------------------7--------------------|
D|--7--(fade)---7----------7--(fade)--7----------7--(fade)--7---------|
A|--5-----------7--(fade)--5----------7--(fade)--5----------7--(fade)-|
E|--------------5---------------------5---------------------5---------|







e|-----------------------------|
B|-----------------------------|
G|-----------------------------|
D|-----------------------------|
A|-----0--2-----------4--3-----|
E|--2--------2--2--2-----------|

----------------------------------------------------------------------------
TRACK #12 : A LITTLE BIT LONGER
----------------------------------------------------------------------------
Intro

E-----------------------------------------------------------------]
B-----------------------------------------------------------------]
G---5----------------------------4--------------------------------]
D---5--------------2-------------4--------------------------------]
A---3--------------2-------------2--------------------------------]
E------------------0----------------------------------------------]

E-----------------------------------------------------------------]
B-----------------------------------------------------------------]
G---5----------------------------4--------------------------------]
D---5--------------2-------------4--------------------------------]
A---3--------------2-------------2--------------------------------]
E------------------0----------------------------------------------]

Verse 1

E-----------------------------------------------------------------]
B-----------------------------------------------------------------]
G---5-------------------------------------------------------------]
D---5----------------------------3--------------------------------]
A---3----------------------------3--------------------------------]
E--------------------------------1--------------------------------]
    Got the news today   But they said I had to stay

E-----------------------------------------------------------------]
B-----------------------------------------------------------------]
G---------------------------------5-------------------------------]
D---------------5-----------3-----5-------------------------------]
A---------------5-----------3-----3-------------------------------]
E---------------3-----------1-------------------------------------]
    A little bit longer and I'll be fine

E-----------------------------------------------------------------]
B-----------------------------------------------------------------]
G---5-------------------------------------------------------------]
D---5-------------------------------------3-----------------------]
A---3-------------------------------------3-----------------------]
E-----------------------------------------1-----------------------]
    When I thought it'd all be done When I thought it'd all been said

E-----------------------------------------------------------------]
B-----------------------------------------------------------------]
G---------------------------------5-------------------------------]
D---------------5-----------3-----5-------------------------------]
A---------------5-----------3-----3-------------------------------]
E---------------3-----------1-------------------------------------]
    A little bit longer and I'll be fine

Chorus 1

E-----------------------------------------------------------------]
B-----------------------------------------------------------------]
G---5-----------------------------------------4-------------------]
D---5---------------------------2-------------4-------------------]
A---3---------------------------2-------------2-------------------]
E-------------------------------0---------------------------------]
    But you don't know what you got 'til it's gone   And you

E-----------------------------------------------------------------]
B-----------------------------------------------------------------]
G---5-----------------------------------4-------------------------]
D---5--------------------2--------------4-------------------------]
A---3--------------------2--------------2-------------------------]
E------------------------0----------------------------------------]
    don't know what it's like to feel so low         And

E-----------------------------------------------------------------]
B-----------------------------------------------------------------]
G---5--------------------------------4----------------------------]
D---5---------------2----------------4----------------------------]
A---3---------------2----------------2----------------------------]
E-------------------0---------------------------------------------]
    every time you smile or laugh you glow        You don't even

E-----------------------------------------------------------------]
B-----------------------------------------------------------------]
G---5--------------------------------4----------------------------]
D---5---------------2----------------4----------------------------]
A---3---------------2----------------2----------------------------]
E-------------------0---------------------------------------------]
    know            know             know        You don't even

E-----------------------------------------------------------------]
B-----------------------------------------------------------------]
G---5-------------------------------------------------------------]
D---5-------------------------------------------------------------]
A---3-------------------------------------------------------------]
E-----------------------------------------------------------------]
    know

Verse 2

E-----------------------------------------------------------------]
B-----------------------------------------------------------------]
G---5----5----5----5----------------------------------------------]
D---5----5----5----5-------3----3----3----3-----------------------]
A---3----3----3----3-------3----3----3----3-----------------------]
E--------------------------1----1----1----1-----------------------]
   All this time moves by  Still no reason why

E-----------------------------------------------------------------]
B-----------------------------------------------------------------]
G-----------------------------------5----5----5----5--------------]
D---------------5----5----3----3----5----5----5----5--------------]
A---------------5----5----3----3----3----3----3----3--------------]
E---------------3----3----1----1----------------------------------]
    A little bit longer and I'll be fine

E-----------------------------------------------------------------]
B-----------------------------------------------------------------]
G---5----5----5----5----------------------------------------------]
D---5----5----5----5-------3----3----3----3-----------------------]
A---3----3----3----3-------3----3----3----3-----------------------]
E--------------------------1----1----1----1-----------------------]
    Waitin' on a cure  But none of them are sure

E-----------------------------------------------------------------]
B-----------------------------------------------------------------]
G-----------------------------------5----5----5----5--------------]
D---------------5----5----3----3----5----5----5----5--------------]
A---------------5----5----3----3----3----3----3----3--------------]
E---------------3----3----1----1----------------------------------]
    A little bit longer and I'll be fine

Chorus 2

E-----------------------------------------------------------------]
B-----------------------------------------------------------------]
G-----------5----5-----------------------------4----4----4----4---]
D-----------5----5--------------2----2---------4----4----4----4---]
A-----------3----3--------------2----2---------2----2----2----2---]
E-------------------------------0----0----------------------------]
    But you don't know what you got 'til it's gone

E-----------------------------------------------------------------]
B-----------------------------------------------------------------]
G-----------5----5-----------------------------4----4----4----4---]
D-----------5----5--------------2----2---------4----4----4----4---]
A-----------3----3--------------2----2---------2----2----2----2---]
E-------------------------------0----0----------------------------]
    And you don't know what it's like to feel so low

E-----------------------------------------------------------------]
B-----------------------------------------------------------------]
G-----------5----5------------------------4----4------------------]
D-----------5----5---------2----2---------4----4------------------]
A-----------3----3---------2----2---------2----2------------------]
E--------------------------0----0---------------------------------]
        And every time you smile or laugh you glow

E-----------------------------------------------------------------]
B-----------------------------------------------------------------]
G----5----4----------------------------4--------------------------]
D----5----4--------3----3----2----2----4--------------------------]
A----3----2--------3----3----2----2----2--------------------------]
E------------------1----1----0----0-------------------------------]
    You don’t even know,     know,     know.   You don’t even

E-----------------------------------------------------------------]
B-----------------------------------------------------------------]
G---5--------------------------------4----------------------------]
D---5---------------2----------------4----------------------------]
A---3---------------2----------------2----------------------------]
E-------------------0---------------------------------------------]
    know            know             know        You don't even

E-----------------------------------------------------------------]
B-----------------------------------------------------------------]
G---5--------------------------------4----------------------------]
D---5---------------2----------------4----------------------------]
A---3---------------2----------------2----------------------------]
E-------------------0---------------------------------------------]
    know            know             know

Interlude/Solo Part 
e|--3/7-888-8\3--888-8\3--777---10--12--15--13-12/13\12--5--3--x--3--0--1--0|
B|--------------------------------------------------------------------------|
G|--------------------------------------------------------------------------|
D|--------------------------------------------------------------------------|
A|--------------------------------------------------------------------------|
E|--------------------------------------------------------------------------|

~~~~~~~~~~~~~

e|--1--0---------------------------------------------------------------------|
B|---------3--1~-------------------------------------------------------------|
G|---------------------------------------------------------------------------|
D|---------------------------------------------------------------------------|
A|---------------------------------------------------------------------------|
E|---------------------------------------------------------------------------|


E-----------------------------------------------------------------]
B-----------------------------------------------------------------]
G---5----5----5----5------------------------4--4--4--4--4--4--4--4]
D---5----5----5----5----2----2----2----2----4--4--4--4--4--4--4--4]
A---3----3----3----3----2----2----2----2----2--2--2--2--2--2--2--2]
E-----------------------0----0----0----0--------------------------]

E-----------------------------------------------------------------]
B-----------------------------------------------------------------]
G---5----5----5----5------------------------4--4--4--4--4--4--4--4]
D---5----5----5----5----2----2----2----2----4--4--4--4--4--4--4--4]
A---3----3----3----3----2----2----2----2----2--2--2--2--2--2--2--2]
E-----------------------0----0----0----0--------------------------]
                                                            But you
Chorus 3

E-----------------------------------------------------------------]
B-----------------------------------------------------------------]
G---5----5----5----5------------------------4--4--4--4--4--4--4--4]
D---5----5----5----5----2----2----2----2----4--4--4--4--4--4--4--4]
A---3----3----3----3----2----2----2----2----2--2--2--2--2--2--2--2]
E-----------------------0----0----0----0--------------------------]
   don't know what you got 'til it's        gone.          And you
E-----------------------------------------------------------------]
B-----------------------------------------------------------------]
G---5----5----5----5------------------------4--4--4--4--4--4--4--4]
D---5----5----5----5----2----2----2----2----4--4--4--4--4--4--4--4]
A---3----3----3----3----2----2----2----2----2--2--2--2--2--2--2--2]
E-----------------------0----0----0----0--------------------------]
    don't know what it's like to feel so    low.             And
E-----------------------------------------------------------------]
B-----------------------------------------------------------------]
G---5----5----5----5------------------------4--4--4--4--5----4----]
D---5----5----5----5----2----2----2----2----4--4--4--4--5----4----]
A---3----3----3----3----2----2----2----2----2--2--2--2--3----2----]
E-----------------------0----0----0----0--------------------------]
    every time you      smile or laugh you  glow.      You don't even
E-----------------------------------------------------------------]
B-----------------------------------------------------------------]
G---5----5----5----5------------------------4--4--4--4--4--4--4--4]
D---5----5----5----5----2----2----2----2----4--4--4--4--4--4--4--4]
A---3----3----3----3----2----2----2----2----2--2--2--2--2--2--2--2]
E-----------------------0----0----0----0--------------------------]
    know!

Interlude 2/ Solo 2
E-----------------------------------------------------------------]
B-----------------------------------------------------------------]
G---5----5----5----5------------------------4--4--4--4--4--4--4--4]
D---5----5----5----5----2----2----2----2----4--4--4--4--4--4--4--4]
A---3----3----3----3----2----2----2----2----2--2--2--2--2--2--2--2]
E-----------------------0----0----0----0--------------------------]

E-----------------------------------------------------------------]
B-----------------------------------------------------------------]
G---5----5----5----5------------------------4--4--4--4--4--4--4--4]
D---5----5----5----5----2----2----2----2----4--4--4--4--4--4--4--4]
A---3----3----3----3----2----2----2----2----2--2--2--2--2--2--2--2]
E-----------------------0----0----0----0--------------------------]

Verse 3

E-----------------------------------------------------------------]
B-----------------------------------------------------------------]
G---------5-------------------------------------------------------]
D---------5--------------------------------3----------------------]
A---------3--------------------------------3----------------------]
E------------------------------------------1----------------------]
   So I'll wait 'til kingdom come.  All the highs and lows are gone.

E----------------------------------------------------------------3]
B----------------------------------------------------------------3]
G---------------------------------5--------2---------------------5]
D---------------5-----------3-----5--------2-------3-------------5]
A---------------5-----------3-----3--------0-------3-------------3]
E---------------3-----------1----------------------1-------------3]
    A little bit longer and I'll be fine                 I'll be fine.


7 comments total. Showing first comments.
0 reply
Jon4sLuv3r wrote on September 19 2008, 09:37 pm

if ur gonna steal tabs from other users, you should give them credit.

0 reply
IJAB1234 wrote on September 21 2008, 08:52 pm

this is sorta inacurrate..

ps. my tab's in here :P

0 reply
Amy The Best wrote on November 2 2008, 12:20 pm

This is the best cd ever done!

I want to post or [tab]
guest
You may want to rate the tab now too:
select rating
Please do not post tabs as comments. Select "correction" instead!