Oops, an error
Loading. Please wait.

Jonas Brothers Chords

ver1
ver1

Album

More versions @911Tabs.com
41,706 views 15 this week
2 commentsread comments
1 2 3 4 5
worth learning
x 4
add to favorites launch autoscroll
font size
0
reset
transpose
0
reset
highlight chords
display chords
Autoscroll
+/-
esc
set tempo
stop
Contributor
Difficulty
intermediate
WARNING: You are trying to view
                                    content from Ultimate-Guitar.com
                                    in an unauthorized application,
                                    which is prohibited.

                                    Please use an official Ultimate
                                    Guitar Tabs application for iPhone,
                                    iPad or Android to access legitimate
                                    chords, guitar, bass, and drum tabs
                                    from Ultimate-Guitar.com database.

                                    Type "ultimate guitar tabs" in Apple
                                    App Store's or Android Market's
                                    search to find the application.
Jonas Brothers-Jonas Brothers

Tracklist:
1).-S.O.S
2).-Hold On
3).-Goodnight And Goodbye
4).-That's Just The Way We Roll
5).-Hello Beautiful
6).-Still In Love With You
7).-Australia
8).-Games
9).-When You Look Me In The Eyes
10).-Inseparable
11).-Just Friends
12).-Hollywood
13).-Year 3000
14).-Kids Of The Future
----------------------------
BONUS JONAS EDITION
15).-Take A Breath 
16).-We've Got The Party (ft.Hannah Montana)
-------------
Track #1:S.O.S
-------------
Tuning: Standard (EADGBe)


Chords Used:
E5: x799xx
C5:x355xx
D5:x577xx
A5:577xxx
G5:355xxx
G#5:466xxx

-Intro/Verse:
|------------------|-------------------------------|
|------------------|-------------------------------|
|-----------5-5-3--|--9-9---7--7-------------------|
|--5-5-------------|----------------7--7-----7--7--|
|------2h3---------|-7-7-4h5-5---------------------|
|-3-3--------------|------------4h5--5---4h5--5----|
                 (x3)

-Chorus:
E5                                C5
Oooo...This is an S.O.S
           G5                                          D5
Don't want a second guess,this is the bottom line
         E5                       C5  
It's true,I gave my all for you
                G5
Now my heart's in two
            D5                              A5
And i can't find the other half
                       C5                              G5
It's like i'm walking on broken glass
               D5          A5
Better believe I Bled
           C5
It's a Call i never get

(Repeat into/verse)

(Repeat Chorus)

-Bridge:
      E5                D5
Next time I'll see you
     A5  G#5 A5 G#5 A5
I'm giving you a Hi5...
C5                                               D5
'Cuz hugs are overrated just FYI

(Repeat Chorus)
---------------
Track #2:Hold On
---------------
Tuning : Standard (EADGBe)

Chords Used (Power Chords) :
B:x244xx
F#:244xxx
E:022xxx
G:355xxx
G#: 466xxx

Verse 1

B             F#                E
We don’t have time left to regret
B             F#                E
It will take more than common sense
B             F#                E
So stop your wondering take a stand
B             F#                E
Theres more to life than just to live

CHORUS

B                              
Cause' an empty room can be so loud
F#                                                         G
Its too many tears to drown them out
G#                   E
So hold on, hold on, hold on, hold on

Verse 2

B             F#            E
One single smile a helping hand
B             F#            E
Its not that hard to be a friend
B             F#                E
So don’t give up stand til the end
B             F#                E
Theres more to life than just to live

(CHORUS)

Chorus 2

B
When you love someone and they break your heart
F#                                                          G
Don’t give up on love have faith restart
G#                     E
Just hold on, hold on, hold on, hold on

Instrumental

B F# E

Bridge

N.C
When it falls apart and your feeling lost
N.C
All your hope is gone don’t forget 
   G#      E
to hold on, hold on

(Chorus)

(Chorus 2)

(Chorus)


B
When you love someone and they break your heart

Don’t give up on love have faith restart
     G#                E
Just hold on, hold on, hold on, hold on

---------------------------
Track #3:GoodNight And Goodbye
---------------------------


Am                                      Dm  
This has been no walk in the park  
                      C                  B          E 
I feel like we have fallen apart 
Am                                    Dm         
Open up your eyes girl and see  
                              C             B               E  
How wonderful this love could be  

F       E  
Hold on tight  
Am                        
It's a roller coaster ride we're on  
     F            E 
So say goodbye 'cause  
  Am                     
I won't be back again  
Dm7          Am    
Up and down  
           G   G# Ab   
You're all around  
        E                             Am  
Say goodnight and goodbye  


(F C, B, E)  
Lala la la la lalalala  

Am                                       Dm  
You say you didn't mean to break  
                            C                       B        E  
My heart but girl you did, but I'm over it  
Am                                    Dm 
Adieu to you and all your games  
                              C   
And all your crazy friends  
                     B     E  
This is the end  
   

(Chrous + the lalalala's)  

        Dm        Am              G G# A              
Well girl, I'm sorry for disappointing you  
            E  
But I'm done  
                   E     F    E    F   E   F       E E 
With being up and down and pushed around  

No more  


( Chrous 2x Withought Lalala's xD)  

TAB:

Nick Guitar:
e|---------------------------------------------------------------------------|
B|---------5----5----5----5----6----6----6----6----5----5----5---------------|
G|---------------------------------------------------------------------------|
D|---------------------------------------------------------------------------|
A|---------------------------5----5----5----5----3----3----3----3------------|
E|------5----5----5----5-----------------------------------------------------|
  
e|-----------------4---------------------------------------------------------|
B|------5-----5----5---------------------------------------------------------|
G|-----------------5------------------x2-------------------------------------|
D|-----------------4---------------------------------------------------------|
A|----2----2-----------------------------------------------------------------|
E|---------------------------------------------------------------------------|
  This has, been no walk in the park, i feel like we have, fallen apart,
  Open, up your eyes girl and see, how wonderful this love, could be.
*Chorus
Kevin's Guitar:
e|---------------------------------------------------------------------------|
B|---------------------------------------------------------------------------|
G|---------------------------------------------------------------------------|
D|------------------------------------2---4/5---1---2/3----------x2----------|
A|--2--3--1----4/5---2--3---1---4/5------------------------------------------|
E|---------------------------------------------------------------------------|
  Hold on tight, it's a roller coaster ride we're on so,
  Say goodbye, cuz it won't be back again

 Nick's Guitar:
e|--------------5------------------------------------------------------------|
B|--------------6------------------------------------------------------------|
G|-------9---7--7------------------------------------------------------------|
D|----9--9---7--7------------------------------------------------------------|
A|----9--7---5--5------------------------------------------------------------|
E|----7----------------------------------------------------------------------|
  Up and down, you're all around,
e|---------------------------------------------------------------------------|
B|---------------------------------------------------------------------------|
G|---------------------------------------------------------------------------|
D|----7----------------------------------------------------------------------|
A|----7--(keep strumming)----------------------------------------------------|
E|----5----------------------------------------------------------------------|
  Say goodnight, and goobye.

Nick Guitar:
e|---------------------------------------------------------------------------|
B|---------5----5----5----5----6----6----6----6----5----5----5---------------|
G|---------------------------------------------------------------------------|
D|---------------------------------------------------------------------------|
A|---------------------------5----5----5----5----3----3----3----3------------|
E|------5----5----5----5-----------------------------------------------------|
  
e|-----------------4---------------------------------------------------------|
B|------5-----5----5---------------------------------------------------------|
G|-----------------5---------------------------------------------------------|
D|-----------------4---------------------------------------------------------|
A|----2----2-----------------------------------------------------------------|
E|---------------------------------------------------------------------------|
  La La La, La La La La, La La La La.

verse Two:
Nick Guitar:
e|---------------------------------------------------------------------------|
B|---------5----5----5----5----6----6----6----6----5----5----5---------------|
G|---------------------------------------------------------------------------|
D|---------------------------------------------------------------------------|
A|---------------------------5----5----5----5----3----3----3----3------------|
E|------5----5----5----5-----------------------------------------------------|
  
e|-----------------4---------------------------------------------------------|
B|------5-----5----5---------------------------------------------------------|
G|-----------------5------------------x2-------------------------------------|
D|-----------------4---------------------------------------------------------|
A|----2----2-----------------------------------------------------------------|
E|---------------------------------------------------------------------------|
  You say, you didn't mean to break, my heart, but girl ya did, but i'm over it,
  Adieu, to you and all your games, all your crazy friends, this is the end.

*Chorus
Kevin's Guitar:
e|---------------------------------------------------------------------------|
B|---------------------------------------------------------------------------|
G|---------------------------------------------------------------------------|
D|------------------------------------2---4/5---1---2/3----------x2----------|
A|--2--3--1----4/5---2--3---1---4/5------------------------------------------|
E|---------------------------------------------------------------------------|
  Hold on tight, it's a roller coaster ride we're on so,
  Say goodbye, cuz it won't be back again

 Nick's Guitar:
e|--------------5------------------------------------------------------------|
B|--------------6------------------------------------------------------------|
G|-------9---7--7------------------------------------------------------------|
D|----9--9---7--7------------------------------------------------------------|
A|----9--7---5--5------------------------------------------------------------|
E|----7----------------------------------------------------------------------|
  Up and down, you're all around,
e|---------------------------------------------------------------------------|
B|---------------------------------------------------------------------------|
G|---------------------------------------------------------------------------|
D|----7----------------------------------------------------------------------|
A|----7--(keep strumming)----------------------------------------------------|
E|----5----------------------------------------------------------------------|
  Say goodnight, and goobye.

Nick Guitar:
e|---------------------------------------------------------------------------|
B|---------5----5----5----5----6----6----6----6----5----5----5---------------|
G|---------------------------------------------------------------------------|
D|---------------------------------------------------------------------------|
A|---------------------------5----5----5----5----3----3----3----3------------|
E|------5----5----5----5-----------------------------------------------------|
  
e|-----------------4---------------------------------------------------------|
B|------5-----5----5---------------------------------------------------------|
G|-----------------5---------------------------------------------------------|
D|-----------------4---------------------------------------------------------|
A|----2----2-----------------------------------------------------------------|
E|---------------------------------------------------------------------------|
  La La La, La La La La, La La La La.

  *insert Kevin's riff to the above:
e|---------------------------------------------------------------------------|
B|---------------------------------------------------------------------------|
G|------55--77--44--9--------------------------------------------------------|
D|------55--77--44--9--------------------------------------------------------|
A|------33--55--22--7/6/7----------------------------------------------------|
E|---------------------------------------------------------------------------|
  Bridge:
e|---------------------------------------------------------------------------|
B|---------------------------------------------------------------------------|
G|---------------------------------------------------------------------------|
D|--------------------2/3/2--------------------------------------------------|
A|-----3-------5-------------------------------------------------------------|
E|---------------------------------------------------------------------------|
  Oh, girl, i'm sorry for, disappointing you,

e|---------------------------------------------------------------------------|
B|---------------------------------------------------------------------------|
G|---------------------------------------------------------------------------|
D|----7----------------------------------------------------------------------|
A|----7--(keep strumming)----------------------------------------------------|
E|----5----------------------------------------------------------------------|
  But i'm done, with being up and down and all around... no more

*Chorus
Kevin's Guitar:
e|---------------------------------------------------------------------------|
B|---------------------------------------------------------------------------|
G|---------------------------------------------------------------------------|
D|------------------------------------2---4/5---1---2/3----------x2----------|
A|--2--3--1----4/5---2--3---1---4/5------------------------------------------|
E|---------------------------------------------------------------------------|
  Hold on tight, it's a roller coaster ride we're on so,
  Say goodbye, cuz it won't be back again

 Nick's Guitar:
e|--------------5------------------------------------------------------------|
B|--------------6------------------------------------------------------------|
G|-------9---7--7------------------------------------------------------------|
D|----9--9---7--7------------------------------------------------------------|
A|----9--7---5--5------------------------------------------------------------|
E|----7----------------------------------------------------------------------|
  Up and down, you're all around,
e|---------------------------------------------------------------------------|
B|---------------------------------------------------------------------------|
G|---------------------------------------------------------------------------|
D|----7----------------------------------------------------------------------|
A|----7--(keep strumming)----------------------------------------------------|
E|----5----------------------------------------------------------------------|
  Say goodnight, and goobye.

-----------------------------
Track #4:That's Just The Way We Roll
-----------------------------

Standard Tuning (EADGBe)

Main Riff
e |-------------------------------------|
B |-------------------------------------|
G |-11-7~~-5-7~-5-7-5-4~----------------|
D |-------------------------------------|
A |-------------------------------------|
E |-------------------------------------|2x

Verse
e|--------------------------------|
B|--------------------------------|
G|--7---5-------7---5-------------|
D|--7---5---5---7---5--5--2--5--7-|
A|--5---3---5---5---3--5--2--5--7-|
E|----------3----------3--0--3--5-|
PM [....................]

Chorus
e |-------------------------------------|
B |-------------------------------------|
G |----7-----7-----7--9--11--12---------|
D |-5--7--5--7--5--7--9--11--12---------|
A |-5--5--5--5--5--5--7--9---10---------|
E |-3-----3-----3-----------------------|

Main Riff
e |-------------------------------------|
B |-------------------------------------|
G |-11-7~~-5-7~-5-7-5-4~----------------|
D |-------------------------------------|
A |-------------------------------------|
E |-------------------------------------|

Verse
e|--------------------------------|
B|--------------------------------|
G|--7---5-------7---5-------------|
D|--7---5---5---7---5--5--2--5--7-|
A|--5---3---5---5---3--5--2--5--7-|
E|----------3----------3--0--3--5-|
PM [....................]

Chorus
e |-------------------------------------|
B |-------------------------------------|
G |----7-----7-----7--9--11--12---------|
D |-5--7--5--7--5--7--9--11--12---------|
A |-5--5--5--5--5--5--7--9---10---------|
E |-3-----3-----3-----------------------|

e|----------------|
B|----------------|
G|---------7--9---|
D|--2---5--7--9---|
A|--2---5--5--7---|
E|--0---3---------|


---thump thump thump---

Chorus
e |-------------------------------------|
B |-------------------------------------|
G |----7-----7-----7--9--11--12---------|
D |-5--7--5--7--5--7--9--11--12---------|
A |-5--5--5--5--5--5--7--9---10---------|
E |-3-----3-----3-----------------------|

Main Riff
e |-------------------------------------|
B |-------------------------------------|
G |-11-7~~-5-7~-5-7-5-4~----------------|
D |-------------------------------------|
A |-------------------------------------|
E |-------------------------------------| x2

e |-------|
B |-------|
G |---7~--|
D |---7~--|
A |---5~--|
E |-------|

---------------------
Track #5:Hello Beautiful
---------------------
Standard Tuning (EADGbe)
Chords USed:
E5:x79900
Eb/E5:x69900
C#5:x46600
A5:577000
C/C#m:x36600
B5:x24400
Bb/B:x14400
F#5:244xxx
B5:799xxx
Nick'S Guitar:

E5                                             Eb/E 
hello beautiful how's it going i hear it's wonderful in California 
hello beautiful has been a long time since my phone's rung and you've been on that line 
Db5                     A5 
I've been missing you It's true 
i've ben missing you,it's true 
*Chorus 
E5        Eb/E      A5 
But tonight i'm gonna fly 
E5         Eb/E       A5  
Yeah Tonight i'm gonna fly 
Db5                C C#m          
cause i could cumb across the world 
           B5           Bb/B       Gb5      
and see everything and never be satisfied 
      A5    B5        E5     
if i could see those eyes 

Kevin's Guitar:


E------------------------- 
A------------------------- 
D------------------------- 
G-4----4--4-------4-4/6--2 
b--4--4-----4---4--------- 
e----0--------0-----------
 
--------------------------
TrAck #6:Still In Love With YOu
--------------------------

Standard Tuning:(EADGBe)


ntro/Verse
e|---------------------------------------------------------------------------|
B|---------------------------------------------------------------------------|
G|--9-9-9-9-9-----------9-9-9-9-9-7-7-7-7-7-----------------5-5-5-5-5-5-5-5--|
D|--x-x-x-x-x-7-7-7-7-7-x-x-x-x-x-x-x-x-x-x-7-7-7-7-7-7-7-7-x-x-x-x-x-x-x-x--|
A|--7-7-7-7-7-x-x-x-x-x-7-7-7-7-7-5-5-5-5-5-x-x-x-x-x-x-x-x-3-3-3-3-3-3-3-3--|
E|------------5-5-5-5-5---------------------5-5-5-5-5-5-5-5------------------|

e|---------------------------------------------------------xxxxxx------------|
B|---------------------------------------------------------xxxxxx------------|
G|-----------------------------------------------------7~--xxxxxx------------|
D|--6-6-6-6-6-7-7-7-7-7-6-6-6-6-6-7-7-7-7-7-6-6-6-6-6--7~--xxxxxx------------|
A|--x-x-x-x-x-x-x-x-x-x-x-x-x-x-x-x-x-x-x-x-x-x-x-x-x--5~--xxxxxx------------|
E|--4-4-4-4-4-5-5-5-5-5-4-4-4-4-4-5-5-5-5-5-4-4-4-4-4------xxxxxx------------|

Chorus
e|---------------------------------------------------------------------------|
B|---------------------------------------------------------------------------|
G|--------99999--------------------99999--------------------99999------------|
D|--77777-99999-99999999-8-7-77777-99999-99999999-8-7-77777-99999-99999999---|
A|--77777-77777-99999999-8-7-77777-77777-99999999-8-7-77777-77777-99999999---|
E|--55555-------77777777-6-5-55555-------77777777-6-5-55555-------77777777---|

e|---------------------------------------------------------------------------|
B|---------------------------------------------------------------------------|
G|-------------------------55555555------------------------------------------|
D|-8-7-44444444-6-77777777-55555555------------------------------------------|
A|-8-7-44444444-6-77777777-33333333------------------------------------------|
E|-6-5-22222222-4-55555555---------------------------------------------------|

Intro/Verse
e|---------------------------------------------------------------------------|
B|---------------------------------------------------------------------------|
G|--9-9-9-9-9-----------9-9-9-9-9-7-7-7-7-7-----------------5-5-5-5-5-5-5-5--|
D|--x-x-x-x-x-7-7-7-7-7-x-x-x-x-x-x-x-x-x-x-7-7-7-7-7-7-7-7-x-x-x-x-x-x-x-x--|
A|--7-7-7-7-7-x-x-x-x-x-7-7-7-7-7-5-5-5-5-5-x-x-x-x-x-x-x-x-3-3-3-3-3-3-3-3--|
E|------------5-5-5-5-5---------------------5-5-5-5-5-5-5-5------------------|

e|---------------------------------------------------------xxxxxx------------|
B|---------------------------------------------------------xxxxxx------------|
G|-----------------------------------------------------7~--xxxxxx------------|
D|--6-6-6-6-6-7-7-7-7-7-6-6-6-6-6-7-7-7-7-7-6-6-6-6-6--7~--xxxxxx------------|
A|--x-x-x-x-x-x-x-x-x-x-x-x-x-x-x-x-x-x-x-x-x-x-x-x-x--5~--xxxxxx------------|
E|--4-4-4-4-4-5-5-5-5-5-4-4-4-4-4-5-5-5-5-5-4-4-4-4-4------xxxxxx------------|

Chorus
e|---------------------------------------------------------------------------|
B|---------------------------------------------------------------------------|
G|--------99999--------------------99999--------------------99999------------|
D|--77777-99999-99999999-8-7-77777-99999-99999999-8-7-77777-99999-99999999---|
A|--77777-77777-99999999-8-7-77777-77777-99999999-8-7-77777-77777-99999999---|
E|--55555-------77777777-6-5-55555-------77777777-6-5-55555-------77777777---|

e|---------------------------------------------------------------------------|
B|---------------------------------------------------------------------------|
G|-------------------------55555555------------------------------------------|
D|-8-4444444444-6-77777777-55555555------------------------------------------|
A|-8-4444444444-6-77777777-33333333------------------------------------------|
E|-6-2222222222-4-55555555---------------------------------------------------|

Solo:
e|------------------------------------------------|
B|------15(Bend Full)--15-----15-----15-----------|
G|--14(Bend Full)--14-----14-----14-----14--------|
D|------------------------------------------------|
A|------------------------------------------------|
E|------------------------------------------------|

e|------------------------------------------------|
B|-------15---------------------------------------|
G|---14------14(BEND/REALESE)-12---14--12---------|
D|------------------------------------------------|
A|------------------------------------------------|
E|------------------------------------------------|

e|------------------------------------------------|
B|------------------------------------------------|
G|---14---12---12(BEND FULL)------12-----12-------|
D|----------------------------14------14-----14---|
A|------------------------------------------------|
E|------------------------------------------------|

e|------------------------------------------------|
B|--------------------------15---------12---------|
G|---12(BEND FULL)--------------------------------|
D|------------------------------------------------|
A|------------------------------------------------|
E|------------------------------------------------|

e|----------------------------------------------------------|
B|----------------------------------------------------------|
G|---14------12------------------------13-----------12------|
D|--------------------14----------11--------10---10------9--|
A|----------------------------------------------------------|
E|----------------------------------------------------------|

e|------------------------------------------------|
B|------------------------------------------------|
G|-------11-------9----12----11----9----11----9---|
D|---9-------11-----------------------------------|
A|------------------------------------------------|
E|------------------------------------------------|

Interlude (over Solo) (x2)
|----------------------------------------------------------------------------|
B|---------------------------------------------------------------------------|
G|---------------------------------------------------------------------------|
D|-11--11--1111--9-9-9999-7-7-77-9999999--------x2---------------------------|
A|-11--11--1111--9-9-9999-7-7-77-9999999-------------------------------------|
E|--9---9---9-9--7-7-7777-5-5-55-7777777-------------------------------------|

Verse
e|---------------------------------------------------------------------------|
B|---------------------------------------------------------------------------|
G|---------------------------------------------------------------------------|
D|-----------------just drums and bass - no guitar this time-----------------|
A|---------------------------------------------------------------------------|
E|---------------------------------------------------------------------------|

Post-verse
e|---------------------xxxxxx------------------------------------------------|
B|---------------------xxxxxx------------------------------------------------|
G|-----------55555555--xxxxxx------------------------------------------------|
D|--77777777-55555555--xxxxxx------------------------------------------------|
A|--77777777-33333333--xxxxxx------------------------------------------------|
E|--55555555-----------xxxxxx------------------------------------------------|

Chorus (x2!!)
e|------------------------------------------------------------------------|
B|------------------------------------------------------------------------|
G|-------99999--------------------99999--------------------99999----------|
D|-77777-99999-99999999-8-7-77777-99999-99999999-8-7-77777-99999-99999999-|
A|-77777-77777-99999999-8-7-77777-77777-99999999-8-7-77777-77777-99999999-|
E|-55555-------77777777-6-5-55555-------77777777-6-5-55555-------77777777-|\
                                                                           x2
e|------------------------------------------------------------------------|/
B|------------------------------------------------------------------------|
G|-------------------------55555555---------------------------------------|
D|-8-4444444444-6-77777777-55555555---------------------------------------|
A|-8-4444444444-6-77777777-33333333---------------------------------------|
E|-6-2222222222-4-55555555------------------------------------------------|
---------------
Track #7:Australia
---------------
Tuning: Standard
  
  Intro: (& Verse part 1)
e|----------------------------------------------------------------------------|
B|----------------------------------------------------------------------------|
G|-99----------55----------------------77----------99----------55-------------|
D|-99----------55----------55----------77----------99----------55----------5--| x2
A|-77----------33----------55----------55----------77----------33----------5--|
E|-------------------------33----------------------------------------------3--|
     You      never      listen      to me             I      know  i'm   better off alone

  Verse: (part 2)
e|----------------------------------------------------------|
B|----------------------------------------------------------|
G|----55555555------------------55555555-----9999-----7777--|
D|----55555555-----55555555-----55555555-----9999-----7777--|
A|----33333333-----55555555-----33333333-----7777-----5555--|
E|-----------------33333333---------------------------------|
          Everybody knows its true yeah we all see through you

  Verse: (part 2 cont.)
e|-----------------------------------------------------------|
B|-----------------------------------------------------------|
G|-----55555555------------------55555555-----9999-----7777--|
D|-----55555555-----55555555-----55555555-----9999-----7777--|
A|-----33333333-----55555555-----33333333-----7777-----5555--|
E|------------------33333333---------------------------------|
         No It wont be hard to do throw away my stuff from 

  Pre-Chorus:
e|---------------------------------------------------------------------------|
B|----------------------4444444444444444-------------------------------------|
G|--5555555555555555----5555555555555555-------------------------------------|
D|--5555555555555555----5555555555555555-------------------------------------|
A|--3333333333333333----3333333333333333-------------------------------------|
E|---------------------------------------------------------------------------|
    you          ooooh           

  Chours:
e|--------------------------------------------------------|
B|--------------------------------------------------------|
G|-------12-12-12-121212-12-12-12129-9-9-99---------------|
D|-------10-12-12-121212-12-12-12129-9-9-9910-10-10-1010--|
A|-------10-10-10-1010-9--9--9--9-97--7-7-7710-10-10-1010--|
E|-----------------------------------------8---8--8--8-8--|
And i'll wait     for her          to come she wont break 


e|--------------------------------------------------------|
B|--------------------------------------------------------|
G|-------12-12-12-121212-12-12-12129-9-9-99---------------|
D|-------10-12-12-121212-12-12-12129-9-9-9910-10-10-1010--|
A|-------10-10-10-1010-9--9--9--9-97-7-7-7710-10-10-1010--|
E|-----------------------------------------8---8--8--8-8--|
         heart  cause I know   shell be    from australia


e|--------------------------------------------------------|
B|--------------------------------------------------------|
G|-------12-12-12-121212-12-12-12129-9-9-99---------------|
D|-------10-12-12-121212-12-12-12129-9-9-9910-10-10-1010--|
A|-------10-10-10-1010-9--9--9--9-97-7-7-7710-10-10-1010--|
E|-----------------------------------------8---8--8--8-8--|
              she is so     beautiful  shes my dream girl


e|----------------------------------------------|
B|----------------------------------------------|
G|-------12-12-12-121212-12-12-12129-9-9-99-----|
D|-------10-12-12-121212-12-12-12129-9-9-9910~--|
A|-------10-10-10-1010-9--9--9--9-97-7-7-7710~--|
E|-----------------------------------------8-~--|
            La La La  (La La La) La La La   Shes my dream girl


  Intro: (& Verse part 1)
e|----------------------------------------------------------------------------|
B|----------------------------------------------------------------------------|
G|-99----------55----------------------77----------99----------55-------------|
D|-99----------55----------55----------77----------99----------55----------5--| x2
A|-77----------33----------55----------55----------77----------33----------5--|
E|-------------------------33----------------------------------------------3--|
   You        were       the one      I thought I      needed     I'm    better off alone


  Verse: (part 2)
e|----------------------------------------------------------|
B|----------------------------------------------------------|
G|----55555555------------------55555555-----9999-----7777--|
D|----55555555-----55555555-----55555555-----9999-----7777--|
A|----33333333-----55555555-----33333333-----7777-----5555--|
E|-----------------33333333---------------------------------|
            Everybody knows its true they know all your secrets


  Verse: (part 2 cont.)
e|-----------------------------------------------------------|
B|-----------------------------------------------------------|
G|-----55555555------------------55555555-----9999-----7777--|
D|-----55555555-----55555555-----55555555-----9999-----7777--|
A|-----33333333-----55555555-----33333333-----7777-----5555--|
E|------------------33333333---------------------------------|
        The only thing you knew was true has just walked out 


 Pre-Chorus:
e|---------------------------------------------------------------------------|
B|----------------------4444444444444444-------------------------------------|
G|--5555555555555555----5555555555555555-------------------------------------|
D|--5555555555555555----5555555555555555-------------------------------------|
A|--3333333333333333----3333333333333333-------------------------------------|
E|---------------------------------------------------------------------------|
     of your life       How does it feeel


  Chours:
e|--------------------------------------------------------|
B|--------------------------------------------------------|
G|-------12-12-12-121212-12-12-12129-9-9-99---------------|
D|-------10-12-12-121212-12-12-12129-9-9-9910-10-10-1010--|
A|-------10-10-10-1010-9--9--9--9-97-7-7-7710-10-10-1010--|
E|-----------------------------------------8---8--8--8-8--|
So i'll wait     for her          to come she wont break 


e|--------------------------------------------------------|
B|--------------------------------------------------------|
G|-------12-12-12-121212-12-12-12129-9-9-99---------------|
D|-------10-12-12-121212-12-12-12129-9-9-9910-10-10-1010--|
A|-------10-10-10-1010-9--9--9--9-97-7-7-7710-10-10-1010--|
E|-----------------------------------------8---8--8--8-8--|
         heart  cause I know   shell be    from australia


e|--------------------------------------------------------|
B|--------------------------------------------------------|
G|-------12-12-12-121212-12-12-12129-9-9-99---------------|
D|-------10-12-12-121212-12-12-12129-9-9-9910-10-10-1010--|
A|-------10-10-10-1010-9--9--9--9-97-7-7-7710-10-10-1010--|
E|-----------------------------------------8---8--8--8-8--|
              she is so     beautiful  shes my dream girl


e|----------------------------------------------|
B|----------------------------------------------|
G|-------12-12-12-121212-12-12-12129-9-9-99-----|
D|-------10-12-12-121212-12-12-12129-9-9-9910~--|
A|-------10-10-10-1010-9--9--9--9-97-7-7-7710~--|
E|-----------------------------------------8-~--|
            La La La  (La La La) La La La   Shes my dream girl


 Bridge:
e|-------------------------------------------------------------------------------|
B|-------------------------------------------------------------------------------|
G|--9/--------------------------------------7/-----------------------12~-x10~-x--|
D|--9/------------12x12/--------------------7/-----------------------12~-x10~-x--|
A|--7/------------12x12/--------------------5/-----------------------10~-x-8~-x--|
E|----------------10x10/---------------------------------------------------------|
       She  will be there  to  love and to care  I know theres no need to worry


e|-------------------------------------------------------------------------------|
B|-------------------------------------------------------------------------------|
G|--9/--------------------------------------7/-------------12~10~----------------|
D|--9/------------12x12/--------------------7/-------------12~10~----------------|
A|--7/------------12x12/--------------------5/-------------10~-8~----------------|
E|----------------10x10/---------------------------------------------------------|
      Girl  of my dreams  the one that will be there to hold me when 


e|---------------------------------------------------------------------------|
B|----------------------4444444444444444-------------------------------------|
G|--5555555555555555----5555555555555555------xxx----------------------------|
D|--5555555555555555----5555555555555555------xxx----------------------------|
A|--3333333333333333----3333333333333333------xxx----------------------------|
E|---------------------------------------------------------------------------|
    I'm down  til   shes  around  I'll  just  wait



Chorus:
 For her to come
 She wont break my heart
 Cause I know shell be 


e|---------------------------|
B|---------------------------|
G|-------121212121212121212--|
D|-------101212121212121212--|
A|-------1010101010-9-9-9-9--|
E|---------------------------|
          From  australia


e|-----------------------------------------------------------------|
B|-----------------------------------------------------------------|
G|-------1212121212121212121212121212121299999999------------------|
D|-------10121212121212121212121212121212999999991010101010101010--|
A|-------1010101010101010-9-9-9-9-9-9-9-9777777771010101010101010--|
E|------------------------------------------------8-8-8-8-8-8-8-8--|
         She is so           beautiful        shes  my  dream  girl


e|-----------------------------------------------------------------|
B|-----------------------------------------------------------------|
G|-------1212121212121212121212121212121299999999------------------|
D|-------10121212121212121212121212121212999999991010101010101010--|
A|-------1010101010101010-9-9-9-9-9-9-9-9777777771010101010101010--|
E|------------------------------------------------8-8-8-8-8-8-8-8--|
               La La La   ( La La La) LA LA LA  Shes my dream gi-


e|-----------------------------------------------------------------|
B|-----------------------------------------------------------------|
G|-------1212121212121212121212121212121299999999------------------|
D|-------10121212121212121212121212121212999999991010101010101010--| x2
A|-------1010101010101010-9-9-9-9-9-9-9-9777777771010101010101010--|
E|------------------------------------------------8-8-8-8-8-8-8-8--|
           -rl      Ooooh Yeah


e|-----------------------------------------------------------------|
B|-----------------------------------------------------------------|
G|-------1212121212121212121212121212121299999999------------------|
D|-------10121212121212121212121212121212999999991010101010101010--|
A|-------1010101010101010-9-9-9-9-9-9-9-9777777771010101010101010--|
E|------------------------------------------------8-8-8-8-8-8-8-8--|
         So I'll wait   For her    to come  she wont break my heart
               (So I'll wait) (For her) (To come) 

e|-----------------------------------------------------------------|
B|-----------------------------------------------------------------|
G|-------1212121212121212121212121212121299999999------------------|
D|-------10121212121212121212121212121212999999991010101010101010--|
A|-------1010101010101010-9-9-9-9-9-9-9-9777777771010101010101010--|
E|------------------------------------------------8-8-8-8-8-8-8-8--|
            Cause   I   Know   shell  be    from  australia
      (She wont break my heart cause I know shell be from australia)


e|-----------------------------------------------------------------|
B|-----------------------------------------------------------------|
G|-------1212121212121212121212121212121299999999------------------|
D|-------10121212121212121212121212121212999999991010101010101010--|
A|-------1010101010101010-9-9-9-9-9-9-9-9777777771010101010101010--|
E|------------------------------------------------8-8-8-8-8-8-8-8--|
            She is  so beautiful          Shes my dream girl
           (She is so beautiful)         (Shes my dream girl)

e|------------------------------------------------------------------|
B|------------------------------------------------------------------|
G|-------1212121212121212121212121212121299999999-------------------|
D|-------1012121212121212121212121212121299999999-10~~------/-------|
A|-------1010101010101010-9-9-9-9-9-9-9-977777777-10~~------/-------|
E|-------------------------------------------------8~~------/-------|
           La  La  La   (La  La  La)  La  La  La Shes my -
                                      (La La La) 


e|-----------|
B|-----------|
G|-----------|
D|--/5~~~----|
A|--/5~~~----|
E|--/3~~~----|
Dream Girl
  dream girl.


SOLO:



e|-------------------------------------|
B|----------------------------12-13-15-|
G|-------------------11-12-14----------|
D|----------10-12-14-------------------|
A|-10-12-14----------------------------|
E|-------------------------------------|
   |------------Triplets-------------|

   G5                       D/F#
e|-15----------15---------|------------------------------|
B|------------------------|------------------------------|
G|----14b16-------14b16---|-14^16--14^16p12-14-14^16-12--|
D|------------------------|------------------------------|
A|------------------------|------------------------------|
E|------------------------|------------------------------|

   E5                              C5
e|--------------------------------|-------------------------|
B|-15-13-12-----------------------|-------------------------|
G|----------14-12----12----12-14--|-14^16-14-12-14^16~~~----|
D|----------------14----14--------|-------------------------|
A|--------------------------------|-------------------------|
E|--------------------------------|-------------------------|
   |---Triplets----|

   G5                         D/F#
e|-17^19-----17^19----17----|-----------------|
B|-----------------------17-|-19^20-----------|
G|--------------------------|-----------------|
D|--------------------------|-----------------|
A|--------------------------|-----------------|
E|--------------------------|-----------------|

   E5                          C5
e|---------------------------|-------------------------------|
B|-20----18-----15\13--11-12-|-------------------------------|
G|---------------------------|-12-10-------------------------|
D|---------------------------|-------12-11-10----------------|
A|---------------------------|----------------12-13-10~~-----|
E|---------------------------|-------------------------------|

-------------
Track #8:Games
-------------

Intro/Chorus:E5-C#5-G#5-B5-F#5
Verse:C#5-B5-Bb5-B5 (x4)
Pre-Chorus:F#5
Bridge:E5-F#5-G5-G#5
--------------------------------
Track #9:When You Look Me In The Eyes
--------------------------------

                       When You Look Me in the Eyes
G                      A 
If the heart is always searching
                    Bm
Can you ever find a home?
          A                G
I've been looking for that someone
                   A
I'll never make it on my own
Bm                    A
Dreams can't take the place of loving you
              Bm           A                G
There's gotta be a million reasons why it's true

Chorus:
                 A      D
When you look me in the eyes
                     A
And tell me that you love me
               Bm
Everything's alright
                       A     G
When you're right here by my side
                 A      D
When you look me in the eyes
                     A  
I catch a glimpse of heaven
  Bm         A G
I find my paradise
         A             D
When you look me in the eyes

Verse 2:
G                  A
How long will I be waiting
                Bm
To be with you again?
              A      G
I'm gonna say that I love you
                A
In the best way that I can
Bm             A
I can't take a day without you here
           Bm                  A             G
You're the light that makes my darkness disappear

Chorus

Bridge:
Bm
Moving on
  A#m
I start to realize
      D          
I can reach my tomorrow
      Bm
I can hold my head up high
         G                        A
And it's all because you're by my side

First four lines of Chorus, then:
       A              D      
When I hold you in my arms
                    A
I know that it's forever
                     Bm
I just gotta let you know
                A       G
I never want to let you go

(Chorus) 
------------------
Track #10:Inseparable
------------------

uning: Standard

Intro:
e|----------------------------------------------------------------------------------|
B|----------------------------------------------------------------------------------|
G|--1313131313131313/12121212\131313131313xx1313131313131313/12121212\1414\1515/13x-|
D|--1313131313131313/12121212\131313131313xx1313131313131313/12121212\1414\1515/13x-|
A|--1111111111111111/10101010\111111111111xx1111111111111111/10101010\1212\1313/13x-|
E|----------------------------------------------------------------------------------|

e|-------------------------------------------------------------------------------------|
B|-------------------------------------------------------------------------------------|
G|--1313131313131313/12121212\1313131313131313131313131313/1212121212121212121212121212|
D|--1313131313131313/12121212\1313131313131313131313131313/1212121212121212121212121212|
A|--1111111111111111/10101010\1111111111111311111111111111/1010101010101010101010101010|
E| ------------------------------------------------------------------------------------|

  Verse:
e|----------------------------------------------------------|
B|---------------**************--------------**************-|
G|-**************66666666666666**************88888888888888-|
D|-33333333333333666666666666666666666666666688888888888888-|
A|-33333333333333444444444444446666666666666666666666666666-|
E|-11111111111111--------------44444444444444---------------|


e|----------------------------------------------------------|
B|---------------**************--------------**************-|
G|-**************66666666666666**************88888888888888-|
D|-33333333333333666666666666666666666666666688888888888888-|
A|-33333333333333444444444444446666666666666666666666666666-|
E|-11111111111111--------------44444444444444---------------|

  Chorus:
e|---------------------------------------------------------------------------------------|
B|---------------------------------------------------------------------------------------|
G|---------------------------------------------------------------------------------------|
D|-----------888888888888888888888888888888888888--33333333333333333333333333333333333---|
A|-----------888888888888888888888888888888888888--33333333333333333333333333333333333---|
E|-----------666666666666666666666666666666666666--11111111111111111111111111111111111---|

e|---------------------------------------------------------------------------|
B|---------------------------------------------------------------------------|
G|---------------------------------------------------------------------------|
D|-44444444444444444444444444444--6666666666666666666666666666---------------|
A|-44444444444444444444444444444--6666666666666666666666666666---------------|
E|-22222222222222222222222222222--4444444444444444444444444444---------------|

e|-----------------------------------------------------------------------------------|
B|-----------------------------------------------------------------------------------|
G|-----------------------------------------------------------------------------------|
D|-------------8888888888888888888888888888888888888888888-33333333333333333333333---|
A|-------------8888888888888888888888888888888888888888888-33333333333333333333333---|
E|-------------6666666666666666666666666666666666666666666-11111111111111111111111---|

e|---------------------------------------------------------------------------|
B|---------------------------------------------------------------------------|
G|---------------------------------------------------------------------------|
D|-44444444444444444444444444444--6666666666666666666666666666---------------|
A|-44444444444444444444444444444--6666666666666666666666666666---------------|
E|-22222222222222222222222222222--4444444444444444444444444444---------------|


  Verse:
e|----------------------------------------------------------|
B|---------------**************--------------**************-|
G|-**************66666666666666**************88888888888888-|
D|-33333333333333666666666666666666666666666688888888888888-|
A|-33333333333333444444444444446666666666666666666666666666-|
E|-11111111111111--------------44444444444444---------------|


e|----------------------------------------------------------|
B|---------------**************--------------**************-|
G|-**************66666666666666**************88888888888888-|
D|-33333333333333666666666666666666666666666688888888888888-|
A|-33333333333333444444444444446666666666666666666666666666-|
E|-11111111111111--------------44444444444444---------------|

 Chorus:
e|---------------------------------------------------------------------------------------|
B|---------------------------------------------------------------------------------------|
G|---------------------------------------------------------------------------------------|
D|-----------888888888888888888888888888888888888--33333333333333333333333333333333333---|
A|-----------888888888888888888888888888888888888--33333333333333333333333333333333333---|
E|-----------666666666666666666666666666666666666--11111111111111111111111111111111111---|

e|---------------------------------------------------------------------------|
B|---------------------------------------------------------------------------|
G|---------------------------------------------------------------------------|
D|-44444444444444444444444444444--6666666666666666666666666666---------------|
A|-44444444444444444444444444444--6666666666666666666666666666---------------|
E|-22222222222222222222222222222--4444444444444444444444444444---------------|


e|-----------------------------------------------------------------------------------|
B|-----------------------------------------------------------------------------------|
G|-----------------------------------------------------------------------------------|
D|-------------8888888888888888888888888888888888888888888-33333333333333333333333---|
A|-------------8888888888888888888888888888888888888888888-33333333333333333333333---|
E|-------------6666666666666666666666666666666666666666666-11111111111111111111111---|

e|---------------------------------------------------------------------------|
B|---------------------------------------------------------------------------|
G|---------------------------------------------------------------------------|
D|-44444444444444444444444444444--6666666666666666666666666666---------------|
A|-44444444444444444444444444444--6666666666666666666666666666---------------|
E|-22222222222222222222222222222--4444444444444444444444444444---------------|


   Bridge:
e|----------------------------------------------------------|
B|---------------**************--------------**************-|
G|-**************66666666666666**************88888888888888-|
D|-33333333333333666666666666666666666666666688888888888888-|
A|-33333333333333444444444444446666666666666666666666666666-|
E|-11111111111111--------------44444444444444---------------|


e|----------------------------------------------------------|
B|---------------**************--------------**************-|
G|-**************66666666666666**************88888888888888-|
D|-33333333333333666666666666666666666666666688888888888888-|
A|-33333333333333444444444444446666666666666666666666666666-|
E|-11111111111111--------------44444444444444---------------|


  Interlude:
e|---------------------------------------------------------------------------|
B|---------------------------------------------------------------------------|
G|--\1313131313131313/12121212\13131313/-------------------------------------|
D|--\1313131313131313/12121212\13131313/-------------------------------------| x2
A|--\1111111111111111/10101010\11111111/-------------------------------------|
E|---------------------------------------------------------------------------|


e|---------------------------------------------------------------------------|
B|---------------------------------------------------------------------------|
G|---1515151515151515\1616161616161616/--------------------------------------|
D|---1515151515151515\1616161616161616/--------------------------------------|
A|---1313131313131313\1414141414141414/--------------------------------------|
E|---------------------------------------------------------------------------|


e|---------------------------------------------------------------------------|
B|---------------------------------------------------------------------------|
G|--\15151515151515151515151515151515----------------------------------------|
D|--\15151515151515151515151515151515----------------------------------------|
A|--\13131313131313131313131313131313----------------------------------------|
E|---------------------------------------------------------------------------|

 Chorus:
e|---------------------------------------------------------------------------------------|
B|---------------------------------------------------------------------------------------|
G|---------------------------------------------------------------------------------------|
D|-----------888888888888888888888888888888888888--33333333333333333333333333333333333---|
A|-----------888888888888888888888888888888888888--33333333333333333333333333333333333---|
E|-----------666666666666666666666666666666666666--11111111111111111111111111111111111---|

e|---------------------------------------------------------------------------|
B|---------------------------------------------------------------------------|
G|---------------------------------------------------------------------------|
D|-44444444444444444444444444444--6666666666666666666666666666---------------|
A|-44444444444444444444444444444--6666666666666666666666666666---------------|
E|-22222222222222222222222222222--4444444444444444444444444444---------------|

e|---------------------------------------------------------------------------------------|
B|---------------------------------------------------------------------------------------|
G|---------------------------------------------------------------------------------------|
D|-----------888888888888888888888888888888888888--33333333333333333333333333333333333---|
A|-----------888888888888888888888888888888888888--33333333333333333333333333333333333---|
E|-----------666666666666666666666666666666666666--11111111111111111111111111111111111---|

e|---------------------------------------------------------------------------|
B|---------------------------------------------------------------------------|
G|---------------------------------------------------------------------------| 
D|-44444444444444444444444444444--6666666666666666666666666666---------------|
A|-44444444444444444444444444444--6666666666666666666666666666---------------|
E|-22222222222222222222222222222--4444444444444444444444444444---------------|
*Start adding harmonics
at the begining of outro.

e|--------------------------------------------------------------------------|
B|--------------------------------------------------------------------------|
G|--------------------------------55555555-66666666-55555555-66666666-------|
D|--88888888888888-33333333333333-55555555-66666666-55555555-66666666-------|
A|--88888888888888-33333333333333-33333333-44444444-33333333-44444444-------|
E|--66666666666666-11111111111111-------------------------------------------|




-------------------
Track #11:Just Friends
-------------------
Chords used:
B:x244xx
A#:x133xx
E:022xxx
F#:244xxx
A:577xxx

B
  There she goes again
A#                      E
  The girl I'm in love with
                       B
It's cool we're just friends
                       A#
We walk the halls at school
               E
We know it's casual
It's cool we're just...

F#                        E
  I don't wanna lead you on
No
F#                       A
The truth is I've grown fond
Yeah


B
Everyone knows it's meant to be
F#
Falling in love, just you and me
        A
'Til the end of time
'Til I'm on her mind
E
It'll happen
B
I've been making lots of plans
F#
Like a picket fence and a rose garden
A
I'll just keep on dreaming
          E
But it's cool cause we're just friends

B               A#
  Small talk on IM
                    E
Just one word sentences
                      B
It's cool we're just friends
                 A#
And if I had my way
                            E
We would talk and talk all day
Yeah

CHORUS

VERSE 3

CHORUS
-----------------
Track #12:Hollywood
-----------------

Intro & Verse x4
e|---------------------------|
B|---------------------------|
G|------5--------------------|
D|-5---------5----3--2-------|
A|-----5---------------------|
E|5---------3----1--0--------|

Bridge x2
e|--------------------------------|
B|--------------------------------|
G|--------------------------------|
D|33333333555555557777777755555555
A|33333333555555557777777755555555
E|11111111333333335555555533333333

On the second time hit this chord, make sure to let it ring!
e|-----------------------|
B|-----------------------|
G|7----------------------|
D|7----------------------|
A|5----------------------|
E|-----------------------|

Chorus x2
e|--------------------------------|
B|--------------------------------|
G|5555555555555555----------------|
D|55555555555555553333333333333333
A|33333333333333333333333333333333
E|----------------1111111111111111

there are 2 guitars at this part, the second one is drowned out by the vocals, but its there

Chorus (continued) Guitar 1
e|------------------------------------|
B|------------------------------------|
G|------------------------------------|
D|77777777555555553-x3-----3-3-3------|
A|77777777555555553-x32h3p23-3-32h3p2-|
E|55555555333333331-x1-----1-1-1------|

Guitar 2
E|
B|-----------------------------------|
G|4--------5-s-12----9---------------|
D|-----------------------------------|
A|-----------------------------------|
E|-----------------------------------|

Interlude
e|----------------------------------|
B|----------------------------------|
G|77777777--------------------------|
D|7777777777777777------------------|
A|5555555577777777------------------|
E|--------555555553x33s15-33x33s15--|

For the begining of the 3 chorus its a piano playin, but i think it sounds good on a 
effect w/ a little distortion

Chourus 3
e|15--13--12--10--9-9-10--9--5--3--1-1-|
B|-------------------------------------|
G|-------------------------------------|
D|-------------------------------------|
A|-------------------------------------|
E|-------------------------------------|

Chorus 3 (continued)
e|------------------------------------|
B|------------------------------------|
G|------------------------------------|
D|77--------------3333333333333333----|
A|77--------------3333333333333333----|
E|55--------------1111111111111111----|

Chorus 3 (continued) Guitar 1
e|--------------------------------|
B|--------------------------------|
G|5555555555555555----------------|
D|55555555555555553333333333333333
A|33333333333333333333333333333333
E|----------------1111111111111111

Guitar 1
e|------------------------------------|
B|------------------------------------|
G|------------------------------------|
D|77777777555555553-x3-----3-3-3------|
A|77777777555555553-x32h3p23-3-32h3p2-|
E|55555555333333331-x1-----1-1-1------|

Guitar 2
E|
B|-----------------------------------|
G|4--------5-s-12----9---------------|
D|-----------------------------------|
A|-----------------------------------|
E|-----------------------------------|

Outro
e|------------------------------------|
B|------------------------------------|
G|555-s-------------------------------|
D|555-s---------------------------77--|
A|333-s---------------------------77--|
E|--------------------------------55--|

Ok so heres how the song goes:
Intro
Verse
Bridge
Chorus 1
Verse
Bridge
Chorus 1
Interlude
Chorus 3
Outro

-----------------
Track #13:Year 3000
-----------------
Chords Used:

B:x244xx
F#:244xxx
E:022xxx
C:x355xx
C#:x466xx
F:133xxx

Intro: B F# E

B              F#            E
one day when i came home at lunchtime,
  E       F#
i heard a funny noise
B               F#           E
went out to the back yard to find out if it was, 
E            F#
one of those rowdy boys.
B                   F#               E
stood there with my neighbour called peter, 
E          F@
and a Flux Capacitor.

C#                    C
he told me he built a time machine
                  B
like the one in a film i've seen,

yeah yeah... he said...

[Chorus:]
     B           F#         E          E
i've been to the year three thousand
F#           B                F#          E      E
not much has changed but they lived under water,
F        B           F#          E            E 
and your great great great grand daughter,
F               B        F#      E
is pretty fine (is pretty fine)

   B              F#            E              E     F#
he took me to the future in the flux thing and i saw everything,
B            F#              E               E   F#
boybands and another one and another one ... and another one!
B                  F#               E
Girl's there, with brown hair, like Star wars
E         F#
Rolled up butter form
C#                  C
we drove round in a time machine,
         B
like the one in the film i've seen..

yeah yeah... he said...

[Chorus]

B                    F#
i took a trip to the year 3 thousand
E                  E     F#
this song had gone multi platinum,
B                    F#         
everybody bought our 7th album.
E              E     F#
it had outsold Kelly Clarkson,
B                    F#              
i took a trip to the year 3 thousand
E                  E     F#
this song had gone multi platinum,
B                    F#         E
everybody bought our 7th album, 7th album.

C#                    C
he told me he built a time machine
                  B
like the one in a film i've seen,
yeah yeah... he said...

[Chorus x4]


-----------------------
Track #14:Kids Of the Future
-----------------------

Chords Used:

F:133xxx
D#:x688xx
C:x355xx
D:x577xx
Bb:x133xx or 688xxx
G:355xxx

eatest adventure
                                            F
Is where the family you searched for comes alive
D#                C
So come meet the Robinsons

C
Looking for a place you belong to
D
Looking for a family that wants you

D#                     Bb
We're the kids of the future (whooooaa)
D#                     Bb
We're the kids of the future (whooooaa)
D#         F                          G
Everybody live cause the future, its now

G        F
na na na na na na na
C        D#
na na na na na na
G        F
na na na na na na na (sing!!)
C        D#
na na na na na na


G
Everyday have fun me and Wilber
                              F
So happy to be here with the Robinsons
D#         C               D
I finally feel like i can be someone
G
Outside a new day is dawning
                                   F
Outside the daylight is sprawing everywhere
D#               C
I know that its right because

C
We'll save the future together
D
This family is forever

D#                    Bb
We're the kids of the future (whoaa)
D#                     Bb
We're the kids of the future (whoaa)
D#         F                         G
Everybody live cause the future, its now

G        F
na na na na na na na
aC        D#
na na na na na na
G        F
na na na na na na na (sing!!)
C        D#
na na na na na na

G              D#
We're the kids, we're the kids /
C                                         / 4x
We're the kids of the future    /
----------------------
Track #15:Take A Breath
----------------------
Chords USed:
Am:577xxx
F:133xxx
D:x577xx
G:355xxx
C:x355xx
G#:466xxx
B:x244xx

Verse:(shoulda P.M)
Am                           F
   I walked across a crowded street
                          D
A sea of eyes cut through me

And i saw you in the middle
Am                              F
   Your upset face, you wear it well
                       D
You camouflage the way you feel 

When everything's the matter 


G                             F
   We've all been down that road before
                      D
Searching for that something more

C
Worlds are spinning round
           G               G#
There's no sign of slowing down
             Am   B C       D    F
So won't you take a breath, just take a breath
C
People change and promises are broken
G                   G#
Clouds can move and skies will be wide open
Am    B  C   D  F
Don't forget to take a breath


Am                           F
   Blink our eyes life's rearranged
                           D
To our surprise it's still okay

It's that way things happen
Am                          F
   Summer comes and then it goes
                            D
Hold on tight and brace for cold 

And it's only for a moment


G                             F
   We've all been down that road before
                      D
Searching for that something more

C
Worlds are spinning round
           G               G#
There's no sign of slowing down
             Am   B C       D    F
So won't you take a breath, just take a breath
C
People change and promises are broken
G                   G#
Clouds can move and skies will be wide open
Am    B  C   D  F
Don't forget to take a breath


C          G    Am
Life isn't suffocating
D         C   G
Air isn't overrated



C
Worlds are spinning round
           G               G#
There's no sign of slowing down
             Am                  F
So won't you take a breath, just take a breath


C
Worlds are spinning round
           G               G#
There's no sign of slowing down
             Am   B C       D    F
So won't you take a breath, just take a breath
C
People change and promises are broken
G                   G#
Clouds can move and skies will be wide open
Am    B  C   D  F
Don't forget to take a breath 


C
Worlds are spinning round
           G               G#
There's no sign of slowing down
             Am    B  C   D  F
So won't you don't forget to take a breath 
----------------------------------------------
Track #15:We've Got The Party (Featuring Hannah Montana)
----------------------------------------------

e|---------------------------------------------------------------------------|
B|---------------------------------------------------------------------------|
G|--------------------------------------7------------------------------------|
D|-5------------------------------------7---slide between here---------------|
A|-5------------------------------------5------------------------------------|
E|-3-------------------------------------------------------------------------|
  come on guys/ tell me what we're doin/were hanging round/ when we could be
 
e|---------------------------------------------------------------------------|
B|---------------------------------------------------------------------------|
G|------9--------3-----------------------------------------------------------|
D|------9--------5-----------------------x3----------------------------------|
A|------7--------3-----------------------------------------------------------|
E|---------------------------------------------------------------------------|
  all over the place/
the sun is shinin/jus the way we like it/let's get out of
this hallway/ show the world our face/
Pre-chorus:
e|---------------------------------------------------------------------------|
B|---------------------------------------------------------------------------|
G|-----------------------7---------------9-----------------------5-----------|
D|-----5-----------------7---------------9-----------------------5-----x2----|
A|-----5-----------------5---------------7-----------------------3-----------|
E|-----3---------------------------------------------------------------------|
it's friday but there's no where to go anywhee is cool/ cuz were not going home/ 
we can do amythng we wanna do/ it's all up to me and you/
chorus:
e|---------------------------------------------------------------------------|
B|---------------------------------------------------------------------------|
G|-----------------------7--------------------9----------------------5-------|
D|-----------5-----------7--------------------9----------------------5--x4---|
A|-----------5-----------5--------------------7----------------------3-------|
E|-----------3---------------------------------------------------------------|
  turn this park into a club/ the stars our light/ and the moon is a ball from 
above/ skateboard hills/ our ride so cool/ oh, look, everyone is waiting for 
us/anywhere we are/ any where we go/ every body knows/ we've got the party with
us/anywhere we are any where we go/ we got the party with us/
verse two:
e|---------------------------------------------------------------------------|
B|---------------------------------------------------------------------------|
G|--------------------------------------7------------------------------------|
D|-5------------------------------------7---slide between here---------------|
A|-5------------------------------------5------------------------------------|
E|-3-------------------------------------------------------------------------|
 radio/ let me be your dj/ i'll turn you up/ keep us movin/ 
e|---------------------------------------------------------------------------|
B|---------------------------------------------------------------------------|
G|------9--------3-----------------------------------------------------------|
D|------9--------5-----------------------x3----------------------------------|
A|------7--------3-----------------------------------------------------------|
E|---------------------------------------------------------------------------|
      till we're on a roll/
every one is dancin to thier own beat/ and letting go/ every body here's got 
soul/ 
Pre-chorus:
e|---------------------------------------------------------------------------|
B|---------------------------------------------------------------------------|
G|-----------------------7---------------9-----------------------5-----------|
D|-----5-----------------7---------------9-----------------------5-----x2----|
A|-----5-----------------5---------------7-----------------------3-----------|
E|-----3---------------------------------------------------------------------|
it's friday but there's no where to be/ we're kicking it together/ it's so 
good to be free/ we've got eachother and that's all we need/ the rest is up to 
you and me 
chorus:
e|---------------------------------------------------------------------------|
B|---------------------------------------------------------------------------|
G|-----------------------7--------------------9----------------------5-------|
D|-----------5-----------7--------------------9----------------------5--x4---|
A|-----------5-----------5--------------------7----------------------3-------|
E|-----------3---------------------------------------------------------------|
  turn this park into a club/ the stars our light/ and the moon is a ball from 
above/ skateboard hills/ our ride so cool/ oh, look, everyone is waiting for 
us/anywhere we are/ any where we go/ every body knows/ we've got the party with
us/anywhere we are any where we go/ we got the party with us/
Bridge:
e|---------------------------------------------------------------------------|
B|---------------------------------------------------------------------------|
G|---------------7-----------9------5--------x2------------------------------|
D|--5------------7-----------9------5----------------------------------------|
A|--5------------5-----------7------3----------------------------------------|
E|--3------------------------------------------------------------------------|
  life is for dreamers/ and i'm a believer/ that nothing can stand in our way
today/let's find a place to play/
chorus:
e|---------------------------------------------------------------------------|
B|---------------------------------------------------------------------------|
G|-----------------------7--------------------9----------------------5-------|
D|-----------5-----------7--------------------9----------------------5--x4---|
A|-----------5-----------5--------------------7----------------------3-------|
E|-----------3---------------------------------------------------------------|
  turn this park into a club/ the stars our light/ and the moon is a ball from 
above/ skateboard hills/ our ride so cool/ oh, look, everyone is waiting for 
us/anywhere we are/ any where we go/ every body knows/ we've got the party with
us/anywhere we are any where we go/ we got the party with us/
*fade the chorus

comments
print report bad tab
2 comments total.
0 reply
hawaiiwillsink wrote on September 18 2008, 01:08 pm

u probably made it sound better than the original

+2 reply
guitaristx11 wrote on January 31 2009, 10:42 am

um...alot of this is just a copy of my TAB. lol

I want to post or [tab]
guest
You may want to rate the tab now too:
select rating
Please do not post tabs as comments. Select "correction" instead!