Oops, an error
Loading. Please wait.

Jonas Brothers Tab

53,074 views 3 this week
2 commentsread comments
1 2 3 4 5
accurate
x 6
add to favorites launch autoscroll
font size
0
reset
Autoscroll
+/-
esc
set tempo
stop
Contributor
Difficulty
intermediate
WARNING: You are trying to view
                                    content from Ultimate-Guitar.com
                                    in an unauthorized application,
                                    which is prohibited.

                                    Please use an official Ultimate
                                    Guitar Tabs application for iPhone,
                                    iPad or Android to access legitimate
                                    chords, guitar, bass, and drum tabs
                                    from Ultimate-Guitar.com database.

                                    Type "ultimate guitar tabs" in Apple
                                    App Store's or Android Market's
                                    search to find the application.
Artist: Jonas Brothers
Album: Jonas Brothers (2007)

Alright, here it is! The entire 2007 Jonas Brothers album tabbed out! The JB tabs are 
over the place, so I decided
to put them all here for easy access. I also edited them all, making them more readable 
more correct. So, basically,
this is the best tab any Jonas Brothers fan could ask for. Enjoy!

For some of the tabs below, you may need to search up the song on YouTube (or listen to 
CD if you own it) for strumming
patterns.

Furthermore, if you need lyrics, go to the following link:

http://www.lyricsmania.com/lyrics/jonas_brothers_lyrics_8121/

There is also a Guitar Techniques Legend at the bottom of the tab. If you don't know how 
perform those techniques, or if
you just don't know how to read tab, then go here:

http://ultimate-guitar.com/lessons/for_beginners/reading_guitar_tablature_ii.html

Last but not least, send me a PM or e-mail me at zskrodel@gmail.com if you have any 
or if you just want to talk
with me. And remember to comment! Thanks!

Tracklist:
1.)	Sos
2.)	Hold On
3.)	Goodnight and Goodbye
4.)	That's Just the Way We Roll
5.)	Hello Beautiful
6.)	Still in Love With You
7.)	Australia
8.)	Games
9.)      When You Look Me in the Eyes
10.)	Inseparable
11.)	Just Friends
12.)	Hollywood
13.)     Year 3000
14.)     Kids of the Future

-----------------------------------------------------------------------------------

Track #1: Sos
Tuning: Standard E (E A D G B e)

  Intro
  e|------------------------------------------|
  B|------------------------------------------|
  G|-----------------5--5--3b-----------------|
  D|-----5----5-------------------------------|
  A|------------2/3---------------------------|
  E|---3----3---------------------------------|
            (intro)

  Verse
  e|------------------------------------------|
  B|------------------------------------------|
  G|-----------------5--5--3b-----------------|
  D|-----5----5-------------------------------|
  A|------------2/3---------------------------|
  E|---3----3---------------------------------|
             (first verse)
     (Told you I made dinner plans...)

  e|------------------------------------------|
  B|------------------------------------------|
  G|-----------------5--5--3h4-or-3/4---------|
  D|-----5----5-------------------------------|
  A|------------2/3---------------------------|
  E|---3----3---------------------------------|
          (You and me and no one else...)


  e|------------------------------------------|
  B|------------------------------------------|
  G|-----------------5--5--3b-----------------|
  D|-----5----5-------------------------------|
  A|------------2/3---------------------------|
  E|---3----3---------------------------------|
      (That don't include your crazy friends)


  e|----------------------------------------------|
  B|----------------------------------------------|
  G|------------------7----7----------------------|
  D|-----2----2-------------------7----7----------|
  A|--------------4/5---5-------------------------|
  E|---0----0-----------------4/5----5-----4/5----|
             (Well I'm done...)
       (With awkward situations empty, conversations)

 ~CHORUS~
 STRUM   (Ooo! This is an SOS, don't wanna second guess)
e|-----------------------------------------------------|
B|-----------------------------------------------------|
G|--9------------5---------------------------7---------|
D|--9------------5--------------5------------7---------|
A|--7------------3--------------5------------5---------|
E|------------------------------3----------------------|x2

       (And I can't find the other half)
e|-----------------------------------------------------|
B|-----------------------------------------------------|
G|---------------5-------------------------------------|
D|--7------------5--------------5------------7---------|
A|--7------------3--------------5------------7---------|
E|--5---------------------------3------------5---------|

 (It's a call I'll never get)
 Go back to Intro and Verse.
 e|-----------------|
 B|-----------------|
 G|------------5----|
 D|--7---------5----|
 A|--7---------3----|
 E|--5--------------|


  Bridge
  Play this part after you do the Intro and Verse a third time.
    (Next time I see you, I'm giving you a high five)
e|-------------------------------------------------------|
B|-------------------------------------------------------|
G|--------------------------7----------------------------|
D|----------5---------------7----------------7-----------|
A|----------5---------------5----------------7-----------|
E|----------3--------------------------------5-----------|


(Cause hugs are over rated, just FYI)
e|-------------|
B|-------------|
G|--5-------7--|
D|--5-------7--|
A|--3-------5--|
E|-------------|

       After the techno part, go back to the ~CHORUS~.

-------------------------------------------------------------------------------

Track #2: Hold On
Tuning: Standard E

Verse 1
e|-------------------------------|
B|-------------------------------|
G|--44---------------------------| x4
D|--44--44--2222222222222222-----|
A|--22--44--2222222222222222-----|
E|------22--0000000000000000-----|

~CHORUS~
e|-------------------------------|
B|-------------------------------|
G|--4----------------------------|
D|--4 16x-4------6------2--------|
A|--2-----4 x16--6 x16--2 x16----|
E|--------2------4------0--------|


Verse 2
e|-----------------------------|
B|-----------------------------|
G|--44-------------------------| x4
D|--44--44--2222222222222222---|
A|--22--44--2222222222222222---|
E|------22--0000000000000000---|

~CHORUS~
e|-----------------------------|
B|-----------------------------|
G|--4--------------------------| x2
D|--4 16x-4------6------2------|
A|--2-----4 x16--6 x16--2 x16--|
E|--------2------4------0------|

e|--------------------------------|
B|--------------------------------|
G|--44----------------------------|
D|--44--44--2222222222222222------|
A|--22--44--2222222222222222------|
E|------22--0000000000000000------|

After Bridge:
e|---------------------------|
B|---------------------------|
G|---------------------------|
D|-66--66--22--22------------|
A|-66--66--22--22------------|
E|-44--44--00--00------------|

~CHORUS~
e|----------------------------|
B|----------------------------|
G|--4-------------------------| x3
D|--4 16x-4------6------2-----|
A|--2-----4 x16--6 x16--2 x16-|
E|--------2------4------0-----|

Outro
|-------------------------|
|-------------------------|
|---44--------------------|
|---44---66--66--22-------|
|---22---66--66--22-------|
|--------44--44--00-------|

------------------------------------------------------------------------

Track #3: Goodnight and Goodbye
Tuning: Standard E

Note:

It may be easier to use finger-style for the Intro/Verse, played by Nick.

Intro/Verse 1
Nick's Guitar
e|---------------------------------------------------------------------------|
B|---------5----5----5----5----6----6----6----6----5----5----5---------------|
G|---------------------------------------------------------------------------|
D|---------------------------------------------------------------------------|
A|---------------------------5----5----5----5----3----3----3----3------------|
E|------5----5----5----5-----------------------------------------------------|

e|-----------------4---------------------------------------------------------|
B|------5-----5----5---------------------------------------------------------|
G|-----------------5------------------x2-------------------------------------|
D|-----------------4---------------------------------------------------------|
A|----2----2-----------------------------------------------------------------|
E|---------------------------------------------------------------------------|
  This has, been no walk in the park, I feel like we have, fallen apart,
  Open, up your eyes girl and see, how wonderful this love, could be

~CHORUS~
Kevin's Guitar
e|---------------------------------------------------------------------------|
B|---------------------------------------------------------------------------|
G|---------------------------------------------------------------------------|
D|------------------------------------2---4/5---1---2/3----------x2----------|
A|--2--3--1----4/5---2--3---1---4/5------------------------------------------|
E|---------------------------------------------------------------------------|
  Hold on tight, it's a roller coaster ride we're on so,
  Say goodbye, cause it won't be back again

Nick's Guitar:
e|--------------5------------------------------------------------------------|
B|--------------6------------------------------------------------------------|
G|-------9---7--7------------------------------------------------------------|
D|----9--9---7--7------------------------------------------------------------|
A|----9--7---5--5------------------------------------------------------------|
E|----7----------------------------------------------------------------------|
  Up and down, you're all around,
e|---------------------------------------------------------------------------|
B|---------------------------------------------------------------------------|
G|---------------------------------------------------------------------------|
D|----7----------------------------------------------------------------------|
A|----7--(keep strumming)----------------------------------------------------|
E|----5----------------------------------------------------------------------|
  Say goodnight, and goobye

Nick's Guitar:
e|---------------------------------------------------------------------------|
B|---------5----5----5----5----6----6----6----6----5----5----5---------------|
G|---------------------------------------------------------------------------|
D|---------------------------------------------------------------------------|
A|---------------------------5----5----5----5----3----3----3----3------------|
E|------5----5----5----5-----------------------------------------------------|

e|-----------------4---------------------------------------------------------|
B|------5-----5----5---------------------------------------------------------|
G|-----------------5---------------------------------------------------------|
D|-----------------4---------------------------------------------------------|
A|----2----2-----------------------------------------------------------------|
E|---------------------------------------------------------------------------|
  La La La, La La La La, La La La La.

Verse 2
Nick's Guitar:
e|---------------------------------------------------------------------------|
B|---------5----5----5----5----6----6----6----6----5----5----5---------------|
G|---------------------------------------------------------------------------|
D|---------------------------------------------------------------------------|
A|---------------------------5----5----5----5----3----3----3----3------------|
E|------5----5----5----5-----------------------------------------------------|

e|-----------------4---------------------------------------------------------|
B|------5-----5----5---------------------------------------------------------|
G|-----------------5------------------x2-------------------------------------|
D|-----------------4---------------------------------------------------------|
A|----2----2-----------------------------------------------------------------|
E|---------------------------------------------------------------------------|
  You say, you didn't mean to break, my heart, but girl ya did, but I'm over it,
  Adieu, to you and all your games, all your crazy friends, this is the end

~CHORUS~
Kevin's Guitar:
e|---------------------------------------------------------------------------|
B|---------------------------------------------------------------------------|
G|---------------------------------------------------------------------------|
D|------------------------------------2---4/5---1---2/3----------x2----------|
A|--2--3--1----4/5---2--3---1---4/5------------------------------------------|
E|---------------------------------------------------------------------------|
  Hold on tight, it's a roller coaster ride we're on so,
  Say goodbye, cause it won't be back again

Nick's Guitar:
e|--------------5------------------------------------------------------------|
B|--------------6------------------------------------------------------------|
G|-------9---7--7------------------------------------------------------------|
D|----9--9---7--7------------------------------------------------------------|
A|----9--7---5--5------------------------------------------------------------|
E|----7----------------------------------------------------------------------|
  Up and down, you're all around,
e|---------------------------------------------------------------------------|
B|---------------------------------------------------------------------------|
G|---------------------------------------------------------------------------|
D|----7----------------------------------------------------------------------|
A|----7--(keep strumming)----------------------------------------------------|
E|----5----------------------------------------------------------------------|
  Say goodnight, and goobye

Nick's Guitar:
e|---------------------------------------------------------------------------|
B|---------5----5----5----5----6----6----6----6----5----5----5---------------|
G|---------------------------------------------------------------------------|
D|---------------------------------------------------------------------------|
A|---------------------------5----5----5----5----3----3----3----3------------|
E|------5----5----5----5-----------------------------------------------------|

e|-----------------4---------------------------------------------------------|
B|------5-----5----5---------------------------------------------------------|
G|-----------------5---------------------------------------------------------|
D|-----------------4---------------------------------------------------------|
A|----2----2-----------------------------------------------------------------|
E|---------------------------------------------------------------------------|
  La La La, La La La La, La La La La

e|---------------------------------------------------------------------------|
B|---------------------------------------------------------------------------|
G|------55--77--44--9--------------------------------------------------------|
D|------55--77--44--9--------------------------------------------------------|
A|------33--55--22--7/6/7----------------------------------------------------|
E|---------------------------------------------------------------------------|

Bridge
e|---------------------------------------------------------------------------|
B|---------------------------------------------------------------------------|
G|---------------------------------------------------------------------------|
D|--------------------2/3/2--------------------------------------------------|
A|-----3-------5-------------------------------------------------------------|
E|---------------------------------------------------------------------------|
  Oh, girl, I'm sorry for, disappointing you,

e|---------------------------------------------------------------------------|
B|---------------------------------------------------------------------------|
G|---------------------------------------------------------------------------|
D|----7----------------------------------------------------------------------|
A|----7--(keep strumming)----------------------------------------------------|
E|----5----------------------------------------------------------------------|
  But I'm done, with being up and down and all around... no more

~CHORUS~
Kevin's Guitar:
e|---------------------------------------------------------------------------|
B|---------------------------------------------------------------------------|
G|---------------------------------------------------------------------------|
D|------------------------------------2---4/5---1---2/3----------x2----------|
A|--2--3--1----4/5---2--3---1---4/5------------------------------------------|
E|---------------------------------------------------------------------------|
  Hold on tight, it's a roller coaster ride we're on so,
  Say goodbye, cause it won't be back again

Nick's Guitar:
e|--------------5------------------------------------------------------------|
B|--------------6------------------------------------------------------------|
G|-------9---7--7------------------------------------------------------------|
D|----9--9---7--7------------------------------------------------------------|
A|----9--7---5--5------------------------------------------------------------|
E|----7----------------------------------------------------------------------|
  Up and down, you're all around,
e|---------------------------------------------------------------------------|
B|---------------------------------------------------------------------------|
G|---------------------------------------------------------------------------|
D|----7----------------------------------------------------------------------|
A|----7--(keep strumming)----------------------------------------------------|
E|----5----------------------------------------------------------------------|
  Say goodnight, and goobye

----------------------------------------------------------------------------------

Track #4: That's Just the Way We Roll
Tuning: Standard E

Main Riff
e |-------------------------------------|
B |-------------------------------------|
G |-11-7~~-5-7~-5-7-5-4~----------------|
D |-------------------------------------|
A |-------------------------------------|
E |-------------------------------------|2x

Verse 1
e|--------------------------------|
B|--------------------------------|
G|--7---5-------7---5-------------|
D|--7---5---5---7---5--5--2--5--7-|
A|--5---3---5---5---3--5--2--5--7-|
E|----------3----------3--0--3--5-|
PM [....................]

~CHORUS~
e |-------------------------------------|
B |-------------------------------------|
G |----7-----7-----7--9--11--12---------|
D |-5--7--5--7--5--7--9--11--12---------|
A |-5--5--5--5--5--5--7--9---10---------|
E |-3-----3-----3-----------------------|

Main Riff
e |-------------------------------------|
B |-------------------------------------|
G |-11-7~~-5-7~-5-7-5-4~----------------|
D |-------------------------------------|
A |-------------------------------------|
E |-------------------------------------|

Verse 2
e|--------------------------------|
B|--------------------------------|
G|--7---5-------7---5-------------|
D|--7---5---5---7---5--5--2--5--7-|
A|--5---3---5---5---3--5--2--5--7-|
E|----------3----------3--0--3--5-|
PM [....................]

~CHORUS~
e |-------------------------------------|
B |-------------------------------------|
G |----7-----7-----7--9--11--12---------|
D |-5--7--5--7--5--7--9--11--12---------|
A |-5--5--5--5--5--5--7--9---10---------|
E |-3-----3-----3-----------------------|

e|----------------|
B|----------------|
G|---------7--9---|
D|--2---5--7--9---|
A|--2---5--5--7---|
E|--0---3---------|


~CHORUS~
e |-------------------------------------|
B |-------------------------------------|
G |----7-----7-----7--9--11--12---------|
D |-5--7--5--7--5--7--9--11--12---------|
A |-5--5--5--5--5--5--7--9---10---------|
E |-3-----3-----3-----------------------|

Main Riff
e |-------------------------------------|
B |-------------------------------------|
G |-11-7~~-5-7~-5-7-5-4~----------------|
D |-------------------------------------|
A |-------------------------------------|
E |-------------------------------------| x2

e |-------|
B |-------|
G |---7~--|
D |---7~--|
A |---5~--|
E |-------|

---------------------------------------------------------------------------

Track #5: Hello Beautiful
Tuning: Standard E

                     Hello beautiful  How's it going?         I hear it's wonderful in California
e|---------0-------------------------------0-----------------------------------|
B|---------0-------------------------------0-----------------------------------|
G|---------9-------------------------------9-----------------------------------|
D|---------9-------------------------------9-----------------------------------|
A|---------7-------------------------------6-----------------------------------|
E|---------x-------------------------------x-----------------------------------|

            I've been missing you           It's true
e|-------------0------------------0--------------------------------------------|
B|-------------0------------------0--------------------------------------------|
G|-------------6------------------6--------------------------------------------|
D|-------------6------------------7--------------------------------------------|
A|-------------4------------------7--------------------------------------------|
E|-------------x------------------5--------------------------------------------|

               But tonight I'm gonna fly              Yeah! Tonight I'm gonna fly
e|------------0---0--------0---------------0----0----------0-----------------------|
B|------------0---0--------0---------------0----0----------0-----------------------|
G|------------9---9--------6---------------9----9----------6-----------------------|
D|------------9---9--------7---------------9----9----------7-----------------------|
A|------------7---6--------7---------------7----6----------7-----------------------|
E|------------x---x--------5---------------x----x----------5-----------------------|

              Cause I could go across the world       See everything and never be satisfied
e|------0--------------0--------------------0-----------0-------0-------------------|
B|------0--------------0--------------------0-----------0-------0-------------------|
G|------6--------------6--------------------4-----------4-------3-------------------|
D|------6--------------6--------------------4-----------4-------4-------------------|
A|------4--------------3--------------------2-----------1-------4-------------------|
E|------x--------------x--------------------x-----------x-------2-------------------|

           If I couldn't see those eyes
e|-------0------0--------0------------------------------------------------------|
B|-------0------0--------0------------------------------------------------------|
G|-------6------8--------9------------------------------------------------------|
D|-------7------9--------9------------------------------------------------------|
A|-------7------9--------7------------------------------------------------------|
E|-------5------7--------x------------------------------------------------------|

                    Hello beautiful    It's been a long time
e|---------0------------------------------------------------------------------|
B|---------0------------------------------------------------------------------|
G|---------9------------------------------------------------------------------|
D|---------9------------------------------------------------------------------|
A|---------7------------------------------------------------------------------|
E|---------x------------------------------------------------------------------|

                  Since my phone's rung   You've been on that line
e|--------0-------------------------------------------------------------------|
B|--------0-------------------------------------------------------------------|
G|--------9-------------------------------------------------------------------|
D|--------9-------------------------------------------------------------------|
A|--------6-------------------------------------------------------------------|
E|--------x-------------------------------------------------------------------|

End the song with an E Major chord.

----------------------------------------------------------------------------------

Track #6: Still in Love With You
Tuning: Standard E

Intro/Verse 1
e|---------------------------------------------------------------------------|
B|---------------------------------------------------------------------------|
G|--9-9-9-9-9-----------9-9-9-9-9-7-7-7-7-7-----------------5-5-5-5-5-5-5-5--|
D|--x-x-x-x-x-7-7-7-7-7-x-x-x-x-x-x-x-x-x-x-7-7-7-7-7-7-7-7-x-x-x-x-x-x-x-x--|
A|--7-7-7-7-7-x-x-x-x-x-7-7-7-7-7-5-5-5-5-5-x-x-x-x-x-x-x-x-3-3-3-3-3-3-3-3--|
E|------------5-5-5-5-5---------------------5-5-5-5-5-5-5-5------------------|

e|---------------------------------------------------------xxxxxx------------|
B|---------------------------------------------------------xxxxxx------------|
G|-----------------------------------------------------7~--xxxxxx------------|
D|--6-6-6-6-6-7-7-7-7-7-6-6-6-6-6-7-7-7-7-7-6-6-6-6-6--7~--xxxxxx------------|
A|--x-x-x-x-x-x-x-x-x-x-x-x-x-x-x-x-x-x-x-x-x-x-x-x-x--5~--xxxxxx------------|
E|--4-4-4-4-4-5-5-5-5-5-4-4-4-4-4-5-5-5-5-5-4-4-4-4-4------xxxxxx------------|

~CHORUS~
e|---------------------------------------------------------------------------|
B|---------------------------------------------------------------------------|
G|--------99999--------------------99999--------------------99999------------|
D|--77777-99999-99999999-8-7-77777-99999-99999999-8-7-77777-99999-99999999---|
A|--77777-77777-99999999-8-7-77777-77777-99999999-8-7-77777-77777-99999999---|
E|--55555-------77777777-6-5-55555-------77777777-6-5-55555-------77777777---|

e|---------------------------------------------------------------------------|
B|---------------------------------------------------------------------------|
G|-------------------------55555555------------------------------------------|
D|-8-7-44444444-6-77777777-55555555------------------------------------------|
A|-8-7-44444444-6-77777777-33333333------------------------------------------|
E|-6-5-22222222-4-55555555---------------------------------------------------|

Verse 2
e|---------------------------------------------------------------------------|
B|---------------------------------------------------------------------------|
G|--9-9-9-9-9-----------9-9-9-9-9-7-7-7-7-7-----------------5-5-5-5-5-5-5-5--|
D|--x-x-x-x-x-7-7-7-7-7-x-x-x-x-x-x-x-x-x-x-7-7-7-7-7-7-7-7-x-x-x-x-x-x-x-x--|
A|--7-7-7-7-7-x-x-x-x-x-7-7-7-7-7-5-5-5-5-5-x-x-x-x-x-x-x-x-3-3-3-3-3-3-3-3--|
E|------------5-5-5-5-5---------------------5-5-5-5-5-5-5-5------------------|

e|---------------------------------------------------------xxxxxx------------|
B|---------------------------------------------------------xxxxxx------------|
G|-----------------------------------------------------7~--xxxxxx------------|
D|--6-6-6-6-6-7-7-7-7-7-6-6-6-6-6-7-7-7-7-7-6-6-6-6-6--7~--xxxxxx------------|
A|--x-x-x-x-x-x-x-x-x-x-x-x-x-x-x-x-x-x-x-x-x-x-x-x-x--5~--xxxxxx------------|
E|--4-4-4-4-4-5-5-5-5-5-4-4-4-4-4-5-5-5-5-5-4-4-4-4-4------xxxxxx------------|

~CHORUS~
e|---------------------------------------------------------------------------|
B|---------------------------------------------------------------------------|
G|--------99999--------------------99999--------------------99999------------|
D|--77777-99999-99999999-8-7-77777-99999-99999999-8-7-77777-99999-99999999---|
A|--77777-77777-99999999-8-7-77777-77777-99999999-8-7-77777-77777-99999999---|
E|--55555-------77777777-6-5-55555-------77777777-6-5-55555-------77777777---|

e|---------------------------------------------------------------------------|
B|---------------------------------------------------------------------------|
G|-------------------------55555555------------------------------------------|
D|-8-4444444444-6-77777777-55555555------------------------------------------|
A|-8-4444444444-6-77777777-33333333------------------------------------------|
E|-6-2222222222-4-55555555---------------------------------------------------|

Solo
e|------------------------------------------------|
B|------15(BEND FULL)--15-----15-----15-----------|
G|--14(BEND FULL)--14-----14-----14-----14--------|
D|------------------------------------------------|
A|------------------------------------------------|
E|------------------------------------------------|

e|------------------------------------------------|
B|-------15---------------------------------------|
G|---14------14(BEND/REALESE)-12---14--12---------|
D|------------------------------------------------|
A|------------------------------------------------|
E|------------------------------------------------|

e|------------------------------------------------|
B|------------------------------------------------|
G|---14---12---12(BEND FULL)------12-----12-------|
D|----------------------------14------14-----14---|
A|------------------------------------------------|
E|------------------------------------------------|

e|------------------------------------------------|
B|--------------------------15---------12---------|
G|---12(BEND FULL)--------------------------------|
D|------------------------------------------------|
A|------------------------------------------------|
E|------------------------------------------------|

e|----------------------------------------------------------|
B|----------------------------------------------------------|
G|---14------12------------------------13-----------12------|
D|--------------------14----------11--------10---10------9--|
A|----------------------------------------------------------|
E|----------------------------------------------------------|

e|------------------------------------------------|
B|------------------------------------------------|
G|-------11-------9----12----11----9----11----9---|
D|---9-------11-----------------------------------|
A|------------------------------------------------|
E|------------------------------------------------|

Interlude (over Solo) (x2)
|----------------------------------------------------------------------------|
B|---------------------------------------------------------------------------|
G|---------------------------------------------------------------------------|
D|-11--11--1111--9-9-9999-7-7-77-9999999-------------------------------------|
A|-11--11--1111--9-9-9999-7-7-77-9999999-------------------------------------|
E|--9---9---9-9--7-7-7777-5-5-55-7777777-------------------------------------|

Verse 3
e|---------------------------------------------------------------------------|
B|---------------------------------------------------------------------------|
G|---------------------------------------------------------------------------|
D|----------------------------drums and bass---------------------------------|
A|---------------------------------------------------------------------------|
E|---------------------------------------------------------------------------|

After Verse 3
e|---------------------xxxxxx------------------------------------------------|
B|---------------------xxxxxx------------------------------------------------|
G|-----------55555555--xxxxxx------------------------------------------------|
D|--77777777-55555555--xxxxxx------------------------------------------------|
A|--77777777-33333333--xxxxxx------------------------------------------------|
E|--55555555-----------xxxxxx------------------------------------------------|

~CHORUS~ (x2)
e|------------------------------------------------------------------------|
B|------------------------------------------------------------------------|
G|-------99999--------------------99999--------------------99999----------|
D|-77777-99999-99999999-8-7-77777-99999-99999999-8-7-77777-99999-99999999-|
A|-77777-77777-99999999-8-7-77777-77777-99999999-8-7-77777-77777-99999999-|
E|-55555-------77777777-6-5-55555-------77777777-6-5-55555-------77777777-|

e|------------------------------------------------------------------------|
B|------------------------------------------------------------------------|
G|-------------------------55555555---------------------------------------|
D|-8-4444444444-6-77777777-55555555---------------------------------------|
A|-8-4444444444-6-77777777-33333333---------------------------------------|
E|-6-2222222222-4-55555555------------------------------------------------|

-------------------------------------------------------------------------------------------------

Track #7: Australia
Tuning: Standard E

e|-----------------------------------------------------------------------|
B|-----------------------------------------------------------------------|
G|---9-9---5-5---------7-7-----9-9---5-5---------------------------------|
D|---9-9---5-5---5-5---7-7-----9-9---5-5---5-----------------------------|
A|---7-7---3-3---5-5---5-5-----7-7---3-3---5-----------------------------|
E|---------------3-3-----------------------3-----------------------------|


e|-----------------------------------------------------------------------|
B|-----------------------------------------------------------------------|
G|---9-9---5-5---------7-7-----9-9---5-5---------------------------------|
D|---9-9---5-5---5-5---7-7-----9-9---5-5---5-----------------------------|
A|---7-7---3-3---5-5---5-5-----7-7---3-3---5-----------------------------|
E|---------------3-3-----------------------3-----------------------------|
"You never listen to me, I know I'm better off alone"


e|-----------------------------------------------------------------------|
B|-----------------------------------------------------------------------|
G|---5-5-5-5-------------5-5-5-5---9-9-9-9---7-7-7-7---------------------|
D|---5-5-5-5---5-5-5-5---5-5-5-5---9-9-9-9---7-7-7-7---------------------|
A|---3-3-3-3---5-5-5-5---3-3-3-3---7-7-7-7---5-5-5-5---------------------|
E|-------------3-3-3-3---------------------------------------------------|
"Everybody knows it's true, they all see through you"


e|-----------------------------------------------------------------------|
B|-----------------------------------------------------------------------|
G|---5-5-5-5-------------5-5-5-5---9-9-9-9---7-7-7-7---------------------|
D|---5-5-5-5---5-5-5-5---5-5-5-5---9-9-9-9---7-7-7-7---------------------|
A|---3-3-3-3---5-5-5-5---3-3-3-3---7-7-7-7---5-5-5-5---------------------|
E|-------------3-3-3-3---------------------------------------------------|
"No it won't be hard to do, throw away myself from you"


e|-----------------------------------------------------------------------|
B|-----------------------------------------------------------------------|
G|---5-5-5-5-5-5-5-5-----------------------------------------------------|
D|---5-5-5-5-5-5-5-5---5-5-5-5-5-5-5-------------------------------------|
A|---3-3-3-3-3-3-3-3---5-5-5-5-5-5-5-5-----------------------------------|
E|---------------------3-3-3-3-3-3-3-3-----------------------------------|
"Oooooohhhh!"

Alright, that's all I've got for the most part. But here's the Solo:

e|---------------------------------------|
B|----------------------------12-13-15---|
G|-------------------11-12-14------------|
D|----------10-12-14---------------------|
A|-10-12-14------------------------------|
E|---------------------------------------|
   |------------Triplets-----------------|

   G5                       D/F#
e|-15----------15---------|------------------------------|
B|------------------------|------------------------------|
G|----14b16-------14b16---|-14^16--14^16p12-14-14^16-12--|
D|------------------------|------------------------------|
A|------------------------|------------------------------|
E|------------------------|------------------------------|

   E5                              C5
e|--------------------------------|---------------------------|
B|-15-13-12-----------------------|---------------------------|
G|----------14-12----12----12-14--|-14^16-14-12-14^16~~~------|
D|----------------14----14--------|---------------------------|
A|--------------------------------|---------------------------|
E|--------------------------------|---------------------------|
   |---Triplets-----------------------------------------------|

   G5                         D/F#
e|-17^19-----17^19----17----|-----------------|
B|-----------------------17-|-19^20-----------|
G|--------------------------|-----------------|
D|--------------------------|-----------------|
A|--------------------------|-----------------|
E|--------------------------|-----------------|

   E5                          C5
e|---------------------------|-------------------------------|
B|-20----18-----15\13--11-12-|-------------------------------|
G|---------------------------|-12-10-------------------------|
D|---------------------------|-------12-11-10----------------|
A|---------------------------|----------------12-13-10~~-----|
E|---------------------------|-------------------------------|
   |--Triplets--|                                   *Hold over next bar
                                                     Then slide out of note

------------------------------------------------------------------------------------------

Track #8: Games
Tuning: Standard E

Intro
e|-------------------------------------------|
B|-------------------------------------------|
G|------------66666666----------------x4-----|
D|--22222222--66666666--666666666666--x4x4x--| x2
A|--22222222--44444444--666666666666--x2x4x--|
E|--00000000------------444444444444----x2x--|

Verse 1
e|------------------------------------|
B|------------------------------------|
G|--6-6-6-6-6-6-6-6--4-4-4-4-4-4-4-4--|
D|--6-6-6-6-6-6-6-6--4-4-4-4-4-4-4-4--| x4
A|--4-4-4-4-4-4-4-4--2-2-2-2-1-1-2-2--|
E|------------------------------------|

Pre-Chorus
e|--------------|
B|--------------|
G|--------------|
D|--4~~---------|
A|--4~~---------|
E|--2~~---------|

~CHORUS~
e|-------------------------------------------|
B|-------------------------------------------|
G|------------66666666----------------x4-----|
D|--22222222--66666666--666666666666--x4x4x--| x4
A|--22222222--44444444--666666666666--x2x4x--|
E|--00000000------------444444444444----x2x--|


e|-------------------|
B|-------------------|
G|-------------------|
D|--2~~~~----4~~~~---| *After the 4th time the ~CHORUS~
A|--2~~~~----4~~~~---|   is played. You can either hold each note
E|--0~~~~----2~~~~---|     or continue to play through the notes.

Verse 2
e|------------------------------------|
B|------------------------------------|
G|--6-6-6-6-6-6-6-6--4-4-4-4-4-4-4-4--|
D|--6-6-6-6-6-6-6-6--4-4-4-4-4-4-4-4--| x4
A|--4-4-4-4-4-4-4-4--2-2-2-2-1-1-2-2--|
E|------------------------------------|

Pre-Chorus
e|--------------|
B|--------------|
G|--------------|
D|--4~~---------|
A|--4~~---------|
E|--2~~---------|

~CHORUS~
e|-------------------------------------------|
B|-------------------------------------------|
G|------------66666666----------------x4-----|
D|--22222222--66666666--666666666666--x4x4x--| x4
A|--22222222--44444444--666666666666--x2x4x--|
E|--00000000------------444444444444----x2x--|


e|-------------------|
B|-------------------|
G|-------------------|
D|--2~~~~----4~~~~---|
A|--2~~~~----4~~~~---|
E|--0~~~~----2~~~~---|

Bridge
e|------------------------|
B|------------------------|
G|------------------------|
D|--222222222222222222----| Repeat as many times
A|--222222222222222222----|  as needed.
E|--000000000000000000----|

e|------------------------------------|
B|------------------------------------|
G|------------------------------------|
D|--22222222--44444444--55555555--6/--|
A|--22222222--44444444--55555555--6/--|
E|--00000000--22222222--33333333--4/--|

~CHORUS~
e|-------------------------------------------|
B|-------------------------------------------|
G|------------66666666----------------x4-----|
D|--22222222--66666666--666666666666--x4x4x--| Only once.
A|--22222222--44444444--666666666666--x2x4x--|
E|--00000000------------444444444444----x2x--|


e|-------------------|
B|-------------------|
G|-------------------|
D|--2~~~~----4~~~~---|
A|--2~~~~----4~~~~---|
E|--0~~~~----2~~~~---|

~CHORUS~
e|-------------------------------------------|
B|-------------------------------------------|
G|------------66666666----------------x4-----|
D|--22222222--66666666--666666666666--x4x4x--| x3
A|--22222222--44444444--666666666666--x2x4x--|
E|--00000000------------444444444444----x2x--|

e|-------------------|
B|-------------------|
G|-------------------|
D|--2~~~~----4~~~~---| x3
A|--2~~~~----4~~~~---|
E|--0~~~~----2~~~~---|

Outro
e|----------------------|
B|----------------------|
G|----------------------|
D|--2~~~~----4~~~~--6~~-|
A|--2~~~~----4~~~~--6~~-|
E|--0~~~~----2~~~~--4~~-|

------------------------------------------------------------------------------

Track #9: When You Look Me in the Eyes
Tuning: Standard E

Intro
e|--15--17----|
B|----15--15--|
G|------------| x4
D|------------|
A|------------|
E|------------|

e|--9--10-------9--10------9--10------12-10-9-----|
B|---10---8~-----10--10~----10---8~----------10~--|
G|------------------------------------------------|
D|------------------------------------------------|
A|------------------------------------------------|
E|------------------------------------------------|


Verse 1
G                      A
If the heart is always searching,
                    Bm
Can you ever find a home?
                  A         G
I've been looking for that someone,

I'll never make it on my own.
G                     A
Dreams can't take the place of loving you,
              Bm                    A        G
There's gotta be a million reasons why it's true.


~CHORUS~
          A              D
When you look me in the eyes,
                       A
And tell me that you love me.
               Bm
Everything's alright,
                       A         G
When you're right here by my side.
          A              D
When you look me in the eyes,
                       A
I catch a glimpse of heaven.
     Bm     A   G
I find my paradise,
           A             D
When you look me in the eyes.


Verse 2
G                   A
How long will I be waiting,
                    Bm
To be with you again?
                A      G
Gonna tell you that I love you,

In the best way that I can.
G               A
I can't take a day without you here,
            Bm                          A    G
You're the light that makes my darkness disappear.


Repeat ~CHORUS~


Bridge
Bm                F#
More and more, I start to realize,
       Em
I can reach my tomorrow,
     (see below)
I can hold my head up high,
          G                        A
And it's all because you're by my side.

                         D (strum once)
When you look me in the eyes,
                      A( strum once)
And tell me that you love me.
              Bm (strum once)
Everything's alright,
                       A (once)  G
When you're right here by my side.
             A             D
And when I hold you in my arms,
                    A
I know that it's forever
                      Bm
I just gotta let you know,
                A     G
I never wanna let you go, cause


Repeat ~CHORUS~


Outro

Repeat 2nd part of Intro

End on D

Note:

In the line "I can hold my head up high" in the Bridge, you can either play the E Minor chord, or:

e|----------------------|
B|----------------------|
G|----------------------|
D|--0-2--0-2--0-2--0-2--|
A|--0-2--0-2--0-2--0-2--|
E|--0-0--0-0--0-0--0-0--|

----------------------------------------------------------------------------------

Track #10: Inseparable
Tuning: Standard E

Intro
e|----------------------------------------------------------------------------------|
B|----------------------------------------------------------------------------------|
G|--1313131313131313/12121212\131313131313xx1313131313131313/12121212\1414\1515/13x-|
D|--1313131313131313/12121212\131313131313xx1313131313131313/12121212\1414\1515/13x-|
A|--1111111111111111/10101010\111111111111xx1111111111111111/10101010\1212\1313/13x-|
E|----------------------------------------------------------------------------------|

e|-------------------------------------------------------------------------------------|
B|-------------------------------------------------------------------------------------|
G|--1313131313131313/12121212\1313131313131313131313131313/1212121212121212121212121212|
D|--1313131313131313/12121212\1313131313131313131313131313/1212121212121212121212121212|
A|--1111111111111111/10101010\1111111111111311111111111111/1010101010101010101010101010|
E| ------------------------------------------------------------------------------------|

Verse 1
e|----------------------------------------------------------|
B|---------------**************--------------**************-|
G|-**************66666666666666**************88888888888888-|
D|-33333333333333666666666666666666666666666688888888888888-|
A|-33333333333333444444444444446666666666666666666666666666-|
E|-11111111111111--------------44444444444444---------------|


e|----------------------------------------------------------|
B|---------------**************--------------**************-|
G|-**************66666666666666**************88888888888888-|
D|-33333333333333666666666666666666666666666688888888888888-|
A|-33333333333333444444444444446666666666666666666666666666-|
E|-11111111111111--------------44444444444444---------------|

~CHORUS~
e|---------------------------------------------------------------------------------------|
B|---------------------------------------------------------------------------------------|
G|---------------------------------------------------------------------------------------|
D|-----------888888888888888888888888888888888888--33333333333333333333333333333333333---|
A|-----------888888888888888888888888888888888888--33333333333333333333333333333333333---|
E|-----------666666666666666666666666666666666666--11111111111111111111111111111111111---|

e|---------------------------------------------------------------------------|
B|---------------------------------------------------------------------------|
G|---------------------------------------------------------------------------|
D|-44444444444444444444444444444--6666666666666666666666666666---------------|
A|-44444444444444444444444444444--6666666666666666666666666666---------------|
E|-22222222222222222222222222222--4444444444444444444444444444---------------|

e|-----------------------------------------------------------------------------------|
B|-----------------------------------------------------------------------------------|
G|-----------------------------------------------------------------------------------|
D|-------------8888888888888888888888888888888888888888888-33333333333333333333333---|
A|-------------8888888888888888888888888888888888888888888-33333333333333333333333---|
E|-------------6666666666666666666666666666666666666666666-11111111111111111111111---|

e|---------------------------------------------------------------------------|
B|---------------------------------------------------------------------------|
G|---------------------------------------------------------------------------|
D|-44444444444444444444444444444--6666666666666666666666666666---------------|
A|-44444444444444444444444444444--6666666666666666666666666666---------------|
E|-22222222222222222222222222222--4444444444444444444444444444---------------|


Verse 2
e|----------------------------------------------------------|
B|---------------**************--------------**************-|
G|-**************66666666666666**************88888888888888-|
D|-33333333333333666666666666666666666666666688888888888888-|
A|-33333333333333444444444444446666666666666666666666666666-|
E|-11111111111111--------------44444444444444---------------|


e|----------------------------------------------------------|
B|---------------**************--------------**************-|
G|-**************66666666666666**************88888888888888-|
D|-33333333333333666666666666666666666666666688888888888888-|
A|-33333333333333444444444444446666666666666666666666666666-|
E|-11111111111111--------------44444444444444---------------|

~CHORUS~
e|---------------------------------------------------------------------------------------|
B|---------------------------------------------------------------------------------------|
G|---------------------------------------------------------------------------------------|
D|-----------888888888888888888888888888888888888--33333333333333333333333333333333333---|
A|-----------888888888888888888888888888888888888--33333333333333333333333333333333333---|
E|-----------666666666666666666666666666666666666--11111111111111111111111111111111111---|

e|---------------------------------------------------------------------------|
B|---------------------------------------------------------------------------|
G|---------------------------------------------------------------------------|
D|-44444444444444444444444444444--6666666666666666666666666666---------------|
A|-44444444444444444444444444444--6666666666666666666666666666---------------|
E|-22222222222222222222222222222--4444444444444444444444444444---------------|


e|-----------------------------------------------------------------------------------|
B|-----------------------------------------------------------------------------------|
G|-----------------------------------------------------------------------------------|
D|-------------8888888888888888888888888888888888888888888-33333333333333333333333---|
A|-------------8888888888888888888888888888888888888888888-33333333333333333333333---|
E|-------------6666666666666666666666666666666666666666666-11111111111111111111111---|

e|---------------------------------------------------------------------------|
B|---------------------------------------------------------------------------|
G|---------------------------------------------------------------------------|
D|-44444444444444444444444444444--6666666666666666666666666666---------------|
A|-44444444444444444444444444444--6666666666666666666666666666---------------|
E|-22222222222222222222222222222--4444444444444444444444444444---------------|


Bridge
e|----------------------------------------------------------|
B|---------------**************--------------**************-|
G|-**************66666666666666**************88888888888888-|
D|-33333333333333666666666666666666666666666688888888888888-|
A|-33333333333333444444444444446666666666666666666666666666-|
E|-11111111111111--------------44444444444444---------------|


e|----------------------------------------------------------|
B|---------------**************--------------**************-|
G|-**************66666666666666**************88888888888888-|
D|-33333333333333666666666666666666666666666688888888888888-|
A|-33333333333333444444444444446666666666666666666666666666-|
E|-11111111111111--------------44444444444444---------------|


Interlude
e|---------------------------------------------------------------------------|
B|---------------------------------------------------------------------------|
G|--\1313131313131313/12121212\13131313/-------------------------------------|
D|--\1313131313131313/12121212\13131313/-------------------------------------| x2
A|--\1111111111111111/10101010\11111111/-------------------------------------|
E|---------------------------------------------------------------------------|


e|---------------------------------------------------------------------------|
B|---------------------------------------------------------------------------|
G|---1515151515151515\1616161616161616/--------------------------------------|
D|---1515151515151515\1616161616161616/--------------------------------------|
A|---1313131313131313\1414141414141414/--------------------------------------|
E|---------------------------------------------------------------------------|


e|---------------------------------------------------------------------------|
B|---------------------------------------------------------------------------|
G|--\15151515151515151515151515151515----------------------------------------|
D|--\15151515151515151515151515151515----------------------------------------|
A|--\13131313131313131313131313131313----------------------------------------|
E|---------------------------------------------------------------------------|

~CHORUS~
e|---------------------------------------------------------------------------------------|
B|---------------------------------------------------------------------------------------|
G|---------------------------------------------------------------------------------------|
D|-----------888888888888888888888888888888888888--33333333333333333333333333333333333---|
A|-----------888888888888888888888888888888888888--33333333333333333333333333333333333---|
E|-----------666666666666666666666666666666666666--11111111111111111111111111111111111---|

e|---------------------------------------------------------------------------|
B|---------------------------------------------------------------------------|
G|---------------------------------------------------------------------------|
D|-44444444444444444444444444444--6666666666666666666666666666---------------|
A|-44444444444444444444444444444--6666666666666666666666666666---------------|
E|-22222222222222222222222222222--4444444444444444444444444444---------------|

e|---------------------------------------------------------------------------------------|
B|---------------------------------------------------------------------------------------|
G|---------------------------------------------------------------------------------------|
D|-----------888888888888888888888888888888888888--33333333333333333333333333333333333---|
A|-----------888888888888888888888888888888888888--33333333333333333333333333333333333---|
E|-----------666666666666666666666666666666666666--11111111111111111111111111111111111---|

e|---------------------------------------------------------------------------|
B|---------------------------------------------------------------------------| 
G|---------------------------------------------------------------------------|
D|-44444444444444444444444444444--6666666666666666666666666666---------------|
A|-44444444444444444444444444444--6666666666666666666666666666---------------|
E|-22222222222222222222222222222--4444444444444444444444444444---------------|
*Start adding harmonics at the  of the Outro.

e|--------------------------------------------------------------------------|
B|--------------------------------------------------------------------------|
G|--------------------------------55555555-66666666-55555555-66666666-------|
D|--88888888888888-33333333333333-55555555-66666666-55555555-66666666-------|
A|--88888888888888-33333333333333-33333333-44444444-33333333-44444444-------|
E|--66666666666666-11111111111111-------------------------------------------|

----------------------------------------------------------------------------------

Track #11: Just Friends
Tuning: Standard E

Intro/Verse 1
"There she goes again"
e|------------------------------------|
B|------------------------------------|
G|--44--444--999------44--444--9999---|
D|--44--444--999------44--444--9999---|
A|--22--221--777------22--221--7777---|
E|------------------------------------|

"I don't want to lead you on"
e|----------------------------------|
B|----------------------------------|
G|----------------------------------|
D|--4----2----4----7----------------|
A|--4x16-2x16-4x16-7x16-------------|
E|--2----0----2----5----------------|

~CHORUS~
"Everyone knows it's meant to be"
e|------------------------|
B|------------------------|
G|-4----------------------|
D|-4x16-4----7----2-------|x2
A|-2----4x16-7x16-2x16----|
E|------2----5----0-------|

Verse 2
"Small talk on IM"
e|------------------------------------|
B|------------------------------------|
G|--44-4----4----9----4----4----9-----|
D|--44-4x14-4x16-9x16-4x16-4x16-9x16--|
A|--22-2----1----7----2----1----7-----|
E|------------------------------------|
       x    x    x    x    x    x

~CHORUS~
"Everyone knows it's meant to be"
e|------------------------|
B|------------------------|
G|-4----------------------|
D|-4x16-4----7----2-------|x2
A|-2----4x16-7x16-2x16----|
E|------2----5----0-------|

Verse 3
e|--------------------------------|
B|--------------------------------|
G|--44-4----444-4----9999-9-------|
D|--44-4x14-444-4x14-9999-9x16----|
A|--22-2----221-1----7777-7-------|
E|--------------------------------|
       x        x         x

"She walks down the aisle"
e|------------------------|
B|------------------------|
G|--44-4----444-4----9----|
D|--44-4x14-444-4x14-9----|
A|--22-2----221-1----7----|
E|------------------------|

~CHORUS~
"Everyone knows it's meant to be"
e|------------------------|   |-----|
B|------------------------|   |-----|
G|-4----------------------|   |--4--|
D|-4x16-4----7----2-------|x4 |--4--|
A|-2----4x16-7x16-2x16----|   |--2--|
E|------2----5----0-------|   |-----|

-------------------------------------------------------

Track #12: Hollywood
Tuning: Standard E

Here's the order of the song:

Intro
Verse
Bridge
~CHORUS~
Verse
Bridge
Chorus
Interlude
~CHORUS~ (3rd time)
Outro

The piano is played first during the Intro, but then the guitar comes in.

Intro/Verse x4
e|---------------------------|
B|---------------------------|
G|------5--------------------|
D|-5---------5----3--2-------|
A|-----5---------------------|
E|5---------3----1--0--------|

Bridge x2
e|--------------------------------|
B|--------------------------------|
G|--------------------------------|
D|33333333555555557777777755555555|
A|33333333555555557777777755555555|
E|11111111333333335555555533333333|

On the second time, hit this. And make sure to let it ring!
e|-----------------------|
B|-----------------------|
G|7----------------------|
D|7----------------------|
A|5----------------------|
E|-----------------------|

~CHORUS~ x2
e|--------------------------------|
B|--------------------------------|
G|5555555555555555----------------|
D|55555555555555553333333333333333|
A|33333333333333333333333333333333|
E|----------------1111111111111111|

There are 2 guitars on this part. The second one is drowned out by the vocals, but it's there.

~CHORUS~ (continued) Guitar 1
e|------------------------------------|
B|------------------------------------|
G|------------------------------------|
D|77777777555555553-x3-----3-3-3------|
A|77777777555555553-x32h3p23-3-32h3p2-|
E|55555555333333331-x1-----1-1-1------|

Guitar 2
e|-----------------------------------|
B|-----------------------------------|
G|4--------5-s-12----9---------------|
D|-----------------------------------|
A|-----------------------------------|
E|-----------------------------------|

Interlude
e|----------------------------------|
B|----------------------------------|
G|77777777--------------------------|
D|7777777777777777------------------|
A|5555555577777777------------------|
E|--------555555553x33s15-33x33s15--|

For the begining of the 3rd ~CHORUS~, it's the piano playing, but I think it sounds good on an
effect with a little distortion.

~CHORUS~ (3rd time)
e|15--13--12--10--9-9-10--9--5--3--1-1-|
B|-------------------------------------|
G|-------------------------------------|
D|-------------------------------------|
A|-------------------------------------|
E|-------------------------------------|

~CHORUS~ (3rd time, continued)
e|------------------------------------|
B|------------------------------------|
G|------------------------------------|
D|77--------------3333333333333333----|
A|77--------------3333333333333333----|
E|55--------------1111111111111111----|

~CHORUS~ (3rd time, continued) Guitar 1
e|--------------------------------|
B|--------------------------------|
G|5555555555555555----------------|
D|55555555555555553333333333333333
A|33333333333333333333333333333333
E|----------------1111111111111111

Guitar 1
e|------------------------------------|
B|------------------------------------|
G|------------------------------------|
D|77777777555555553-x3-----3-3-3------|
A|77777777555555553-x32h3p23-3-32h3p2-|
E|55555555333333331-x1-----1-1-1------|

Guitar 2
e|
B|-----------------------------------|
G|4--------5-s-12----9---------------|
D|-----------------------------------|
A|-----------------------------------|
E|-----------------------------------|

Outro
e|------------------------------------|
B|------------------------------------|
G|555-s-------------------------------|
D|555-s---------------------------77--|
A|333-s---------------------------77--|
E|--------------------------------55--|

--------------------------------------------------------

Track #13: Year 3000
Tuning: Standard E

Note:

This one's a little hard to read, but I'm positive that's it's almost 100% correct.

PM PM         PM PM            PM PM
     E  E  S S S S E  E  S S S S    E  E  S S S S E  E  E  E
E||------------------------------|----------------------------|
B||--------2-4-2-----------------|----------------------------|
G||----------------------1-3-1---|----------------------------|
D||------------------------------|--------4-6-4------2-----4--|
A||--2--2--------2---------------|-------------------2-----4--|
E||----------------2--2--------2-|--0--0--------0-0-----2-----|


  PM PM         PM PM            PM PM
  E  E  S S S S E  E  S S S S    E  E  S S S S E  E  E  E
------------------------------|----------------------------|
--------2-4-2-----------------|----------------------------|
----------------------1-3-1---|----------------------------|
------------------------------|--------4-6-4------2-----4--|
--2--2--------2---------------|-------------------2-----4--|
----------------2--2--------2-|--0--0--------0-0-----2-----|


  E  E  Q    E  E  Q       E  E  Q    E  S S S E.     E  E  Q    E  E  Q
------------------------|--------------------------|------------------------|
------------------------|--------------------------|------------------------|
--------4----------4----|--------4----8--9-9-9-8---|--------4----------4----|
--------4----------4----|--------4-----------------|--------4----------4----|
--2--2------------------|-------------6--7-7-7-6---|--2--2------------------|
-------------2--2-------|--0--0--------------------|-------------2--2-------|


  E  E  Q    E  S S S E.     E  E  E  E  E  E  E  E
--------------------------|--------------------------|
--------------------------|--------------------------|
--------4----8--9-9-9-8---|--4--4--------------------|
--------4-----------------|--4--4--------4--4--------|
-------------6--7-7-7-6---|--2--2--------4--4--------|
--0--0--------------------|--------------2--2--------|


  E  E  E  E  E  E  E  E     E  E  E  E  E  E  E  E
--------------------------|--------------------------|
--------------------------|--------------------------|
--------------------------|--4--4--------------------|
--2--2--------2--2--4--4--|--4--4--------4--4--------|
--2--2--------2--2--4--4--|--2--2--------4--4--------|
--0--0--------0--0--2--2--|--------------2--2--------|


  E  E  E  E  E  E  E  E     E  E  E  E  E  E  E  E
--------------------------|--------------------------|
--------------------------|--------------------------|
--------------------------|--4--4--------------------|
--2--2--------2--2--4--4--|--4--4--------4--4--------|
--2--2--------2--2--4--4--|--2--2--------4--4--------|
--0--0--------0--0--2--2--|--------------2--2--------|


  E  E  E  E  E  E  E  E     E  E  E  E  E  E  E  E
--------------------------|--------------------------|
--------------------------|--------------4-----------|
--------------------------|--------5--------5--------|
--2--2--------2--2--4--4--|-----------6--------6-----|
--2--2--------2--2--4--4--|-----6-----------------6--|
--0--0--------0--0--2--2--|--4-----------------------|


  E  E  E  E  E  E  E  E     E  E  E  E  E  E  E  E
--------------------------|--------------------------|
--------------2-----------|--------------0-----------|
--------3--------3--------|--------1--------1--------|
-----------4--------4-----|-----------2--------2-----|
-----4-----------------4--|-----2-----------------2--|
--2-----------------------|--0-----------------------|


  E  E  E  E  E  E  E  E     E  E  Q    E  E  Q       E  E  Q    E  S S S E.
--------------------------|------------------------|--------------------------|
--------------0-----------|------------------------|--------------------------|
--------1--------1--------|--------4----------4----|--------4----8--9-9-9-8---|
-----------2--------2-----|--------4----------4----|--------4-----------------|
-----2-----------------2--|--2--2------------------|-------------6--7-7-7-6---|
--0-----------------------|-------------2--2-------|--0--0--------------------|


  E  E  Q    E  E  Q       E  E  Q    E  S S S E.     E  E  Q    E  E  Q
------------------------|--------------------------|------------------------|
------------------------|--------------------------|------------------------|
--------4----------4----|--------4----8--9-9-9-8---|--------4----------4----|
--------4----------4----|--------4-----------------|--------4----------4----|
--2--2------------------|-------------6--7-7-7-6---|--2--2------------------|
-------------2--2-------|--0--0--------------------|-------------2--2-------|


  E  E  Q    E  S S S E.     E  E  Q    E  E  Q       E  E  Q    E  S S S E.
--------------------------|------------------------|--------------------------|
--------------------------|------------------------|--------------------------|
--------4----8--9-9-9-8---|--------4----------4----|--------4----8--9-9-9-8---|
--------4-----------------|--------4----------4----|--------4-----------------|
-------------6--7-7-7-6---|--2--2------------------|-------------6--7-7-7-6---|
--0--0--------------------|-------------2--2-------|--0--0--------------------|


  E  E  E  E  E  E  E  E     E  E  E  E  E  E  E  E
--------------------------|--------------------------|
--------------------------|--------------------------|
--------4-----------------|--------------------------|
-----4-----4--------4-----|--------2-----------------|
--2--------------4-----4--|-----2-----2--2--2--4--4--|
--------------2-----------|--0-----------0--0--2--2--|


  E  E  E  E  E  E  E  E     E  E  E  E  E  E  E  E
--------------------------|--------------------------|
--------------------------|--------------------------|
--------4-----------------|--------------------------|
-----4-----4--------4-----|--------2-----------------|
--2--------------4-----4--|-----2-----2--2--2--4--4--|
--------------2-----------|--0-----------0--0--2--2--|


  PM PM       PM PM          PM PM       PM PM PM PM
  E  E  E  E  E  E  E  E     E  E  E  E  E  E  E  E
--------------------------|--------------------------|
--------------------------|--------------------------|
--------------------------|--------------------------|
--4--4--------------------|--------------------------|
--2--2--------4--4--------|--2--2--------2--2--4--4--|
--------------2--2--------|--0--0--------0--0--2--2--|


  E  E  E  E  E  E  E  E     E  E  E  E  E  E  E  E
--------------------------|--------------------------|
--------------4-----------|--------------2-----------|
--------5--------5--------|--------3--------3--------|
-----------6--------6-----|-----------4--------4-----|
-----6-----------------6--|-----4-----------------4--|
--4-----------------------|--2-----------------------|


  E  E  E  E  E  E  E  E     E  E  E  E  E  E  E  E     E  E  Q    E  E  Q
--------------------------|--------------------------|------------------------|
--------------0-----------|--------------0-----------|------------------------|
--------1--------1--------|--------1--------1--------|--------4----------4----|
-----------2--------2-----|-----------2--------2-----|--------4----------4----|
-----2-----------------2--|-----2-----------------2--|--2--2------------------|
--0-----------------------|--0-----------------------|-------------2--2-------|


  E  E  Q    E  S S S E.     E  E  Q    E  E  Q       E  E  Q    E  S S S E.
--------------------------|------------------------|--------------------------|
--------------------------|------------------------|--------------------------|
--------4----8--9-9-9-8---|--------4----------4----|--------4----8--9-9-9-8---|
--------4-----------------|--------4----------4----|--------4-----------------|
-------------6--7-7-7-6---|--2--2------------------|-------------6--7-7-7-6---|
--0--0--------------------|-------------2--2-------|--0--0--------------------|


  E  E  Q    E  E  Q       E  E  Q    E  S S S E.     E  E  Q    E  E  Q
------------------------|--------------------------|------------------------|
------------------------|--------------------------|------------------------|
--------4----------4----|--------4----8--9-9-9-8---|--------4----------4----|
--------4----------4----|--------4-----------------|--------4----------4----|
--2--2------------------|-------------6--7-7-7-6---|--2--2------------------|
-------------2--2-------|--0--0--------------------|-------------2--2-------|


  E  E  Q    E  S S S E.     E  E  E  E   E   E  E  E
--------------------------|----------------------------|
--------------------------|----------------------------|
--------4----8--9-9-9-8---|--4--4--------11--11--------|
--------4-----------------|--4--4--------11--11--------|
-------------6--7-7-7-6---|--2--2---------9---9--------|
--0--0--------------------|----------------------------|


  E  E  E  E  E  S  S  E  S S    E  E  E  E   E   E  E  E
------------------------------|----------------------------|
------------------------------|----------------------------|
--9--9--------9--x--x-11--x-x-|--4--4--------11--11--------|
--9--9--------9--x--x-11--x-x-|--4--4--------11--11--------|
--7--7--------7--x--x--9--x-x-|--2--2---------9---9--------|
------------------------------|----------------------------|


  E  E  E  E  E  S  S  E  S S    E  E  E  E   E   E  E  E
------------------------------|----------------------------|
------------------------------|----------------------------|
--9--9--------9--x--x-11--x-x-|--4--4--------11--11--------|
--9--9--------9--x--x-11--x-x-|--4--4--------11--11--------|
--7--7--------7--x--x--9--x-x-|--2--2---------9---9--------|
------------------------------|----------------------------|


  E  E  E  E  E  S  S  E  S S    E  E  E  E   E   E  E  E
------------------------------|----------------------------|
------------------------------|----------------------------|
--9--9--------9--x--x-11--x-x-|--4--4--------11--11--------|
--9--9--------9--x--x-11--x-x-|--4--4--------11--11--------|
--7--7--------7--x--x--9--x-x-|--2--2---------9---9--------|
------------------------------|----------------------------|


  E  E  E  E  E  E  E  E     E  E  E  E  E  E  E  E
--------------------------|--------------------------|
--------------------------|--------------4-----------|
--9--9--9--9--9--9--9--9--|--------5--------5--------|
--9--9--9--9--9--9--9--9--|-----------6--------6-----|
--7--7--7--7--7--7--7--7--|-----6-----------------6--|
--------------------------|--4-----------------------|


  E  E  E  E  E  E  E  E     E  E  E  E  E  E  E  E
--------------------------|--------------------------|
--------------2-----------|--------------0-----------|
--------3--------3--------|--------1--------1--------|
-----------4--------4-----|-----------2--------2-----|
-----4-----------------4--|-----2-----------------2--|
--2-----------------------|--0-----------------------|


  E  E  E  E  E  E  E  E
--------------------------|-----|-----|-----|-----|-----|-----|-----|-----|
--------------0-----------|-----|-----|-----|-----|-----|-----|-----|-----|
--------1--------1--------|-----|-----|-----|-----|-----|-----|-----|-----|
-----------2--------2-----|-----|-----|-----|-----|-----|-----|-----|-----|
-----2-----------------2--|-----|-----|-----|-----|-----|-----|-----|-----|
--0-----------------------|-----|-----|-----|-----|-----|-----|-----|-----|


  E  E  Q    E  E  Q       E  E  Q    E  S S S E.     E  E  Q    E  E  Q
------------------------|--------------------------|------------------------|
------------------------|--------------------------|------------------------|
--------4----------4----|--------4----8--9-9-9-8---|--------4----------4----|
--------4----------4----|--------4-----------------|--------4----------4----|
--2--2------------------|-------------6--7-7-7-6---|--2--2------------------|
-------------2--2-------|--0--0--------------------|-------------2--2-------|


  E  E  Q    E  S S S E.     E  E  Q    E  E  Q       E  E  Q    E  S S S E.
--------------------------|------------------------|--------------------------|
--------------------------|------------------------|--------------------------|
--------4----8--9-9-9-8---|--------4----------4----|--------4----8--9-9-9-8---|
--------4-----------------|--------4----------4----|--------4-----------------|
-------------6--7-7-7-6---|--2--2------------------|-------------6--7-7-7-6---|
--0--0--------------------|-------------2--2-------|--0--0--------------------|


  E  E  Q    E  E  Q       E  E  Q    E  S S S E.     E  E  Q    E  E  Q
------------------------|--------------------------|------------------------|
------------------------|--------------------------|------------------------|
--------4----------4----|--------4----8--9-9-9-8---|--------4---------------|
--------4----------4----|--------4-----------------|--------4----------4----|
--2--2------------------|-------------6--7-7-7-6---|--2--2-------------4----|
-------------2--2-------|--0--0--------------------|-------------2--2-------|


  E  E  Q    E  S S S E.     E  E  Q    E  E  Q       E  E  Q    E  S S S E.
--------------------------|------------------------|--------------------------|
--------------------------|------------------------|--------------------------|
--------4----8--9-9-9-8---|--------4----------4----|--------4----8--9-9-9-8---|
--------4-----------------|--------4----------4----|--------4-----------------|
-------------6--7-7-7-6---|--2--2------------------|-------------6--7-7-7-6---|
--0--0--------------------|-------------2--2-------|--0--0--------------------|


  E  E  Q    E  E  Q       E  E  Q    E  S S S E.     E  E  Q    E  E  Q
------------------------|--------------------------|------------------------|
------------------------|--------------------------|------------------------|
--------4----------4----|--------4----8--9-9-9-8---|--------4----------4----|
--------4----------4----|--------4-----------------|--------4----------4----|
--2--2------------------|-------------6--7-7-7-6---|--2--2------------------|
-------------2--2-------|--0--0--------------------|-------------2--2-------|


  E  E  Q    E  S S S E.
--------------------------|------||
--------------------------|------||
--------4----8--9-9-9-8---|------||
--------4-----------------|------||
-------------6--7-7-7-6---|------||
--0--0--------------------|------||

---------------------------------------------------------------------------------------------------

Track #14: Kids of the Future
Tuning: Standard E

Note:

This one's not very good at all, but its the best I got. Sorry.


Is where the family you searched for comes alive
D#                C
So come meet the Robinsons

C
Looking for a place you belong to
D
Looking for a family that wants you

D#                     Bb
We're the kids of the future (whooooaa)
D#                     Bb
We're the kids of the future (whooooaa)
D#         F                          G
Everybody live cause the future, its now

G        F
na na na na na na na
C        D#
na na na na na na
G        F
na na na na na na na (sing!!)
C        D#
na na na na na na


G
Everyday have fun me and Wilber
                              F
So happy to be here with the Robinsons
D#         C               D
I finally feel like i can be someone
G
Outside a new day is dawning
                                   F
Outside the daylight is sprawing everywhere
D#               C
I know that its right because

C
We'll save the future together
D
This family is forever

D#                    Bb
We're the kids of the future (whoaa)
D#                     Bb
We're the kids of the future (whoaa)
D#         F                         G
Everybody live cause the future, its now

G        F
na na na na na na na
C        D#
na na na na na na
G        F
na na na na na na na (sing!!)
C        D#
na na na na na na

G              D#
We're the kids, we're the kids /
C                                         / 4x
We're the kids of the future    /

----------------------------------------------------------------

Guitar Techniques Legend:

/ = slide
b = bend
^ = bend
br = bend/release
h = hammer-on
p = pull-off
PM = palm mute
... = palm mute
* = palm mute (unless it's simply being used as an asterick in the text)
X = dead note (unless it's being used as in "x2" or "x3")
~ vibrato
~~ wide vibrato

E-mail me at zskrodel@gmail.com if you have any questions.
comments
print report bad tab
2 comments total.
0 reply
guitaristx11 wrote on August 14 2008, 06:00 pm

i hope you like this!

and im sorry that the text is kinda messed up at the top. it wasn't like that before i posted it.... ah, who cares. :)

+1 reply
mileyjonasfan08 wrote on August 14 2008, 09:23 pm

awwsome dude`

I want to post or [tab]
guest
You may want to rate the tab now too:
select rating
Please do not post tabs as comments. Select "correction" instead!