Oops, an error
Loading. Please wait.

Time Is On Our Side Tab

877 views 1 this week
no commentswrite comment
1 2 3 4 5
worth learning
x 1
Autoscroll
+/-
esc
set tempo
stop
Hey! There's an official Ultimate Guitar app which is ideal
for learning songs when you're away from computer. Get the app
WARNING: You are trying to view
                                    content from Ultimate-Guitar.com
                                    in an unauthorized application,
                                    which is prohibited.

                                    Please use an official Ultimate
                                    Guitar Tabs application for iPhone,
                                    iPad or Android to access legitimate
                                    chords, guitar, bass, and drum tabs
                                    from Ultimate-Guitar.com database.

                                    Type "ultimate guitar tabs" in Apple
                                    App Store's or Android Market's
                                    search to find the application.
-----------------------------------------------------------------------------
             TIME IS ON OUR SIDE - Jonas Brothers
-----------------------------------------------------------------------------
Tabbed by: Sid
Email:

Tuning: Standard

INTRO


e|--------------------------------------------------------------|
B|--------------------------------------------------------------|
G|--------------------------------------------------------------|
D|--------------------------------------------------------------|
A|--------------------------------------------------------------|
E|--------5\7--7--7--7--7--7--7---0h2--2--2--2--2--2--2---------|

e|--------------------------------------------------------------|
B|--------------------------------------------------------------|
G|--------------------------------------------------------------|
D|--------------------------------------------------------------|
A|--------2\4--4--4--4--4--4--4---5\7--7--7--7--7--7--7---------|
E|--------------------------------------------------------------|


VERSE


e|---------------------------------------------------------------------|
B|---------------------------------------------------------------------|
G|-------4--4------------7--7------------------------------------------|
D|-------4--4------------7--7------------7--7------------5--5----------|
A|-------2--2------------5--5------------7--7------------5--5----------|
E|---------------------------------------5--5------------3--3----------|

e|---------------------------------------------------------------------|
B|---------------------------------------------------------------------|
G|-------4--4------------7--7------------------------------------------|
D|-------4--4------------7--7---------------7---------------7----------|
A|-------2--2------------5--5---------------7---------------7----------|
E|------------------------------------------5---------------5----------|

e|---------------------------------------------------------------------|
B|---------------------------------------------------------------------|
G|-------4--4------------7--7------------------------------------------|
D|-------4--4------------7--7------------7--7------------5--5----------|
A|-------2--2------------5--5------------7--7------------5--5----------|
E|---------------------------------------5--5------------3--3----------|

e|---------------------------------------------------------------------|
B|---------------------------------------------------------------------|
G|-------4--4------------7--7------------------------------------------|
D|-------4--4------------7--7---------------7---------------7----------|
A|-------2--2------------5--5---------------7---------------7----------|
E|------------------------------------------5---------------5----------|


VERSE


e|---------------------------------------------------------------|
B|---------------------------------------------------------------|
G|-------4--4--4--4--4--4--4--4----------------------------------|
D|-------4--4--4--4--4--4--4--4--7--7--7--7--7--7--7--7----------|
A|-------2--2--2--2--2--2--2--2--7--7--7--7--7--7--7--7----------|
E|-------------------------------5--5--5--5--5--5--5--5----------|

e|---------------------------------------------------------------|
B|---------------------------------------------------------------|
G|---------------------------------------------------------------|
D|-------2--2--2--2--2--2--2--2--5--5--5--5--5--5--5--5----------|
A|-------2--2--2--2--2--2--2--2--5--5--5--5--5--5--5--5----------|
E|-------0--0--0--0--0--0--0--0--3--3--3--3--3--3--3--3----------|

e|---------------------------------------------------------------|
B|---------------------------------------------------------------|
G|-------4--4--4--4--4--4--4--4----------------------------------|
D|-------4--4--4--4--4--4--4--4--7--7--7--7--7--7--7--7----------|
A|-------2--2--2--2--2--2--2--2--7--7--7--7--7--7--7--7----------|
E|-------------------------------5--5--5--5--5--5--5--5----------|

e|---------------------------------------------------------------|
B|---------------------------------------------------------------|
G|---------------------------------------------------------------|
D|---------------------------------------------------------------|
A|------------5h7----5h7----5h7----5h7--7--7--7--7---------------|
E|---------------------------------------------------------------|

e|---------------------------------------------------------------|
B|---------------------------------------------------------------|
G|-------4--4--4--4--4--4--4--4----------------------------------|
D|-------4--4--4--4--4--4--4--4--7--7--7--7--7--7--7--7----------|
A|-------2--2--2--2--2--2--2--2--7--7--7--7--7--7--7--7----------|
E|-------------------------------5--5--5--5--5--5--5--5----------|

e|---------------------------------------------------------------|
B|---------------------------------------------------------------|
G|---------------------------------------------------------------|
D|-------2--2--2--2--2--2--2--2--5--5--5--5--5--5--5--5----------|
A|-------2--2--2--2--2--2--2--2--5--5--5--5--5--5--5--5----------|
E|-------0--0--0--0--0--0--0--0--3--3--3--3--3--3--3--3----------|

e|---------------------------------------------------------------|
B|---------------------------------------------------------------|
G|-------4--4--4--4--4--4--4--4----------------------------------|
D|-------4--4--4--4--4--4--4--4--7--7--7--7--7--7--7--7----------|
A|-------2--2--2--2--2--2--2--2--7--7--7--7--7--7--7--7----------|
E|-------------------------------5--5--5--5--5--5--5--5----------|

e|---------------------------------------------------------------|
B|---------------------------------------------------------------|
G|---------------------------------------------------------------|
D|---------------------------------------------------------------|
A|------------5h7----5h7----5h7----5h7--7--7--7--7---------------|
E|---------------------------------------------------------------|

BRIDGE
e|---------------------------------------------------------------|
B|---------------------------------------------------------------|
G|-------4--4--4--4--4--4--4--4----------------------------------|
D|-------4--4--4--4--4--4--4--4--7--7--7--7--7--7--7--7----------|
A|-------2--2--2--2--2--2--2--2--7--7--7--7--7--7--7--7----------|
E|-------------------------------5--5--5--5--5--5--5--5----------|

e|---------------------------------------------------------------|
B|---------------------------------------------------------------|
G|---------------------------------------------------------------|
D|-------2--2--2--2--2--2--2--2--5--5--5--5--5--5--5--5----------|
A|-------2--2--2--2--2--2--2--2--5--5--5--5--5--5--5--5----------|
E|-------0--0--0--0--0--0--0--0--3--3--3--3--3--3--3--3----------|

e|---------------------------------------------------------------|
B|---------------------------------------------------------------|
G|-------4--4--4--4--4--4--4--4----------------------------------|
D|-------4--4--4--4--4--4--4--4--7--7--7--7--7--7--7--7----------|
A|-------2--2--2--2--2--2--2--2--7--7--7--7--7--7--7--7----------|
E|-------------------------------5--5--5--5--5--5--5--5----------|

e|---------------------------------------------------------------|
B|---------------------------------------------------------------|
G|---------------------------------------------------------------|
D|-------2--2--2--2--2--2--2--2--5--5--5--5--5--5--5--5----------|
A|-------2--2--2--2--2--2--2--2--5--5--5--5--5--5--5--5----------|
E|-------0--0--0--0--0--0--0--0--3--3--3--3--3--3--3--3----------|


CHORUS

e|---------------------------------------------------------------|
B|---------------------------------------------------------------|
G|-------4--4--4--4--4--4--4--4----------------------------------|
D|-------4--4--4--4--4--4--4--4--7--7--7--7--7--7--7--7----------|
A|-------2--2--2--2--2--2--2--2--7--7--7--7--7--7--7--7----------|
E|-------------------------------5--5--5--5--5--5--5--5----------|

e|---------------------------------------------------------------|
B|---------------------------------------------------------------|
G|---------------------------------------------------------------|
D|-------2--2--2--2--2--2--2--2--5--5--5--5--5--5--5--5----------|
A|-------2--2--2--2--2--2--2--2--5--5--5--5--5--5--5--5----------|
E|-------0--0--0--0--0--0--0--0--3--3--3--3--3--3--3--3----------|

e|---------------------------------------------------------------|
B|---------------------------------------------------------------|
G|-------4--4--4--4--4--4--4--4----------------------------------|
D|-------4--4--4--4--4--4--4--4--7--7--7--7--7--7--7--7----------|
A|-------2--2--2--2--2--2--2--2--7--7--7--7--7--7--7--7----------|
E|-------------------------------5--5--5--5--5--5--5--5----------|

e|---------------------------------------------------------------|
B|---------------------------------------------------------------|
G|---------------------------------------------------------------|
D|---------------------------------------------------------------|
A|------------5h7----5h7----5h7----5h7--7--7--7--7---------------|
E|---------------------------------------------------------------|

e|--------------------------------------------------------------|
B|--------------------------------------------------------------|
G|--------------------------------------------------------------|
D|---------------------------------------------------4----------|
A|------------5h7----5h7----5h7----5h7--7--7--7--7---4----------|
E|---------------------------------------------------2----------|
e|--------------------------------------------------------------|


************************************
| /   slide up
| h   hammer-on
************************************
comments
We did not receive enough feedback on this tab! Please rate:
print report bad tab
1 2 3 4 5
I want to post or [tab]
guest
You may want to rate the tab now too:
select rating
Please do not post tabs as comments. Select "correction" instead!