Oops, an error
Loading. Please wait.

Heartbeats Tab

ver7
8,958 views 9 this week
no commentswrite comment
1 2 3 4 5
not so good
x 1
Autoscroll
+/-
esc
set tempo
stop
Contributor
Difficulty
advanced
Hey! There's an official Ultimate Guitar app which is ideal
for learning songs when you're away from computer. Get the app
WARNING: You are trying to view
                                    content from Ultimate-Guitar.com
                                    in an unauthorized application,
                                    which is prohibited.

                                    Please use an official Ultimate
                                    Guitar Tabs application for iPhone,
                                    iPad or Android to access legitimate
                                    chords, guitar, bass, and drum tabs
                                    from Ultimate-Guitar.com database.

                                    Type "ultimate guitar tabs" in Apple
                                    App Store's or Android Market's
                                    search to find the application.
      Heartbeats                                    
      José González

The patern of notes change slightly when he starts to sing
I copied the first 2 bars in audio under the singing part, they dont match (i time streched it)
I havent found out yet how but there is a difference, if anyone does know plz correct my tab, 
and mail it to me too :-) stomhe5@hotmail.com

using the "slow me down" plugin for winamp helps, (winamp.com plugins)
but hard still to hear what he is doing


               
      
D#||---------------------------|---------------------------|
A#||------------------------0--|------------------0--------|
D#||-----0------------0--------|------------0-----------0--|
C#||--------1h--2--2-----2-----|--1h--2--2-----2-----------|
G#||---------------------------|---------------------2-----|
D#||--0------------------------|---------------------------|


                                                   
                                        
---------------------------|---------------------------|
------------------------0--|------------------0--------|
-----0------------0--------|------------0--------------|
--------1h--2--2-----2-----|--1h--2--2-----2-----------|
---------------------------|---------------------2-----|
--0------------------------|---------------------------|


                                                  
                                       
---------------------------|---------------------------|
------------------2--------|---------------------------|
------------4-----------4--|------------4-----4-----4--|
---------------------------|---------------------------|
----4----4-----4-----4-----|--2h--4--4-----4-----------|
---------------------------|---------------------4-----|


                                                  
                                       
---------------------------|---------------------------|
---------------------------|---------------------------|
------0-----0-----4-----0--|------------0-----4-----0--|
---------2-----2-----2-----|--1h--2--2-----2-----------|
---0-----------------------|---------------------2-----|
---------------------------|---------------------------|


                                                    
                                        
---------------------------|---------------------------|
------------------------0--|------------------0--------|
-----0------------0--------|------------0-----------0--|
--------1h--2--2-----2-----|--1h--2--2-----2-----------|
---------------------------|---------------------2-----|
--0------------------------|---------------------------|


                                                   
                                        
---------------------------|---------------------------|
------------------------0--|------------------0--------|
-----0------------0--------|------------0--------------|
--------1h--2--2-----2-----|--1h--2--2-----2-----------|
---------------------------|---------------------2-----|
--0------------------------|---------------------------|


                                                  
                                       
---------------------------|---------------------------|
------------------2--------|---------------------------|
------------4-----------4--|------------4-----4-----4--|
---------------------------|---------------------------|
----4----4-----4-----4-----|--2h--4--4-----4-----------|
---------------------------|---------------------4-----|


                                                  
                                       
---------------------------|---------------------------|
---------------------------|---------------------------|
------0-----0-----4-----0--|------------0-----4-----0--|
---------2-----2-----2-----|--1h--2--2-----2-----------|
---0-----------------------|---------------------2-----|
---------------------------|---------------------------|


                                                    
                                        
---------------------------|---------------------------|
------------------------0--|------------------0--------|
-----0------------0--------|------------0-----------0--|
--------1h--2--2-----2-----|--1h--2--2-----2-----------|
---------------------------|---------------------2-----|
--0------------------------|---------------------------|


                                                   
                                        
---------------------------|---------------------------|
------------------------0--|------------------0--------|
-----0------------0--------|------------0--------------|
--------1h--2--2-----2-----|--1h--2--2-----2-----------|
---------------------------|---------------------2-----|
--0------------------------|---------------------------|


                                                  
                                       
---------------------------|---------------------------|
------------------2--------|---------------------------|
------------4-----------4--|------------4-----4-----4--|
---------------------------|---------------------------|
----4----4-----4-----4-----|--2h--4--4-----4-----------|
---------------------------|---------------------4-----|


                                                  
                                       
---------------------------|---------------------------|
---------------------------|---------------------------|
------0-----0-----4-----0--|------------0-----4-----0--|
---------2-----2-----2-----|--1h--2--2-----2-----------|
---0-----------------------|---------------------2-----|
---------------------------|---------------------------|


                                                    
                                        
---------------------------|---------------------------|
------------------------0--|------------------0--------|
-----0------------0--------|------------0-----------0--|
--------1h--2--2-----2-----|--1h--2--2-----2-----------|
---------------------------|---------------------2-----|
--0------------------------|---------------------------|


                                                   
                                        
---------------------------|---------------------------|
------------------------0--|------------------0--------|
-----0------------0--------|------------0--------------|
--------1h--2--2-----2-----|--1h--2--2-----2-----------|
---------------------------|---------------------2-----|
--0------------------------|---------------------------|


                                                  
                                       
---------------------------|---------------------------|
------------------2--------|---------------------------|
------------4-----------4--|------------4-----4-----4--|
---------------------------|---------------------------|
----4----4-----4-----4-----|--2h--4--4-----4-----------|
---------------------------|---------------------4-----|


                                                  
                                       
---------------------------|---------------------------|
---------------------------|---------------------------|
------0-----0-----4-----0--|------------0-----4-----0--|
---------2-----2-----2-----|--1h--2--2-----2-----2-----|
---0-----------------------|---------------------------|
---------------------------|---------------------------|


                                                   
                                        
---------------------------|---------------------------|
---------------------------|------------------------0--|
------------0-----4-----0--|-----0------------0--------|
--1h--2--2-----2-----------|--------1h--2--2-----2-----|
---------------------2-----|---------------------------|
---------------------------|--0------------------------|


                                                    
                                        
---------------------------|---------------------------|
------------------0--------|------------------------0--|
------------0-----------0--|-----0------------0--------|
--1h--2--2-----2-----------|--------1h--2--2-----2-----|
---------------------2-----|---------------------------|
---------------------------|--0------------------------|


                                                 
                                       
---------------------------|--------------------------|
-------------------0-------|----------------2---------|
-------------0-------------|----------4-----------4---|
---1h--2--2-----2----------|--------------------------|
----------------------2----|--4----4-----4-----4------|
---------------------------|--------------------------|


                                                   
                                       
---------------------------|--------------------------|
---------------------------|--------------------------|
------------4-----4-----4--|-----0-----0-----4-----0--|
---------------------------|--------2-----2-----2-----|
--2h--4--4-----4-----------|--0-----------------------|
---------------------4-----|--------------------------|


                                                   
                                        
---------------------------|---------------------------|
---------------------------|------------------------0--|
------------0-----4-----0--|-----0------------0--------|
--1h--2--2-----2-----------|--------1h--2--2-----2-----|
---------------------2-----|---------------------------|
---------------------------|--0------------------------|


                                                    
                                        
---------------------------|---------------------------|
------------------0--------|------------------------0--|
------------0-----------0--|-----0------------0--------|
--1h--2--2-----2-----------|--------1h--2--2-----2-----|
---------------------2-----|---------------------------|
---------------------------|--0------------------------|


                                                    
                                        
---------------------------|---------------------------|
------------------0--------|------------------------0--|
------------0-----------0--|-----0------------0--------|
--1h--2--2-----2-----------|--------1h--2--2-----2-----|
---------------------2-----|---------------------------|
---------------------------|--0------------------------|


                                                    
                                        
---------------------------|---------------------------|
------------------0--------|------------------------0--|
------------0-----------0--|-----0------------0--------|
--1h--2--2-----2-----------|--------1h--2--2-----2-----|
---------------------2-----|---------------------------|
---------------------------|--0------------------------|


                                                 
                                       
---------------------------|--------------------------|
-------------------0-------|----------------2---------|
-------------0-------------|----------4-----------4---|
---1h--2--2-----2----------|--------------------------|
----------------------2----|--4----4-----4-----4------|
---------------------------|--------------------------|


                                                   
                                       
---------------------------|--------------------------|
---------------------------|--------------------------|
------------4-----4-----4--|-----0-----0-----4-----0--|
---------------------------|--------2-----2-----2-----|
--2h--4--4-----4-----------|--0-----------------------|
---------------------4-----|--------------------------|


                                                   
                                        
---------------------------|---------------------------|
---------------------------|------------------------0--|
------------0-----4-----0--|-----0------------0--------|
--1h--2--2-----2-----------|--------1h--2--2-----2-----|
---------------------2-----|---------------------------|
---------------------------|--0------------------------|


                                                    
                                        
---------------------------|---------------------------|
------------------0--------|------------------------0--|
------------0-----------0--|-----0------------0--------|
--1h--2--2-----2-----------|--------1h--2--2-----2-----|
---------------------2-----|---------------------------|
---------------------------|--0------------------------|


                                                  
                                       
---------------------------|--------------------------|
-------------------0-------|----------------2---------|
-------------0-------------|----------4-----------4---|
---1h--2--2-----2----------|--------------------------|
----------------------2----|--4----4-----4-----4------|
---------------------------|--------------------------|


                                                   
                                       
---------------------------|--------------------------|
---------------------------|--------------------------|
------------4-----4-----4--|-----0-----0-----4-----0--|
---------------------------|--------2-----2-----2-----|
--2h--4--4-----4-----------|--0-----------------------|
---------------------4-----|--------------------------|


                                                   
                                       
---------------------------|--------------------------|
---------------------------|--------------------------|
------------0-----4-----0--|----------0-----4-----0---|
--1h--2--2-----2-----2-----|--2----2-----2-----2------|
---------------------------|--------------------------|
---------------------------|--------------------------|


                                                  
                                        
---------------------------|---------------------------|
---------------------------|------------------------0--|
------------0-----4-----0--|-----0------------0--------|
--1h--2--2-----2-----------|--------1h--2--2-----2-----|
---------------------2-----|---------------------------|
---------------------------|--0------------------------|


                                                    
                                        
---------------------------|---------------------------|
------------------0--------|------------------------0--|
------------0-----------0--|-----0------------0--------|
--1h--2--2-----2-----------|--------1h--2--2-----2-----|
---------------------2-----|---------------------------|
---------------------------|--0------------------------|


                                                 
                                       
---------------------------|--------------------------|
-------------------0-------|----------------2---------|
-------------0-------------|----------4-----------4---|
---1h--2--2-----2----------|--------------------------|
----------------------2----|--4----4-----4-----4------|
---------------------------|--------------------------|


                                                   
                                       
---------------------------|--------------------------|
---------------------------|--------------------------|
------------4-----4-----4--|-----0-----0-----4-----0--|
---------------------------|--------2-----2-----2-----|
--2h--4--4-----4-----------|--0-----------------------|
---------------------4-----|--------------------------|


                                                   
                                        
---------------------------|---------------------------|
---------------------------|------------------------0--|
------------0-----4-----0--|-----0------------0--------|
--1h--2--2-----2-----------|--------1h--2--2-----2-----|
---------------------2-----|---------------------------|
---------------------------|--0------------------------|


                                                    
                                        
---------------------------|---------------------------|
------------------0--------|------------------------0--|
------------0-----------0--|-----0------------0--------|
--1h--2--2-----2-----------|--------1h--2--2-----2-----|
---------------------2-----|---------------------------|
---------------------------|--0------------------------|


                                                 
                                       
---------------------------|--------------------------|
-------------------0-------|----------------2---------|
-------------0-------------|----------4-----------4---|
---1h--2--2-----2----------|--------------------------|
----------------------2----|--4----4-----4-----4------|
---------------------------|--------------------------|


                                                   
                                       
---------------------------|--------------------------|
---------------------------|--------------------------|
------------4-----4-----4--|-----0-----0-----4-----0--|
---------------------------|--------2-----2-----2-----|
--2h--4--4-----4-----------|--0-----------------------|
---------------------4-----|--------------------------|


                                               
                                       
---------------------------|--------------------------|
---------------------------|--------------------------|
------------0-----4-----0--|-----0-----0-----4-----0--|
--1h--2--2-----2-----2-----|--------4-----4-----4-----|
---------------------------|--2-----------------------|
---------------------------|--------------------------|


                                            
                                      
---------------------------|--------------------------|
---------------------------|--------------------------|
------0-----0-----4-----0--|-----0-----0-----4-----0--|
---------4-----4-----4-----|--------4-----4-----4-----|
---2-----------------------|--2-----------------------|
---------------------------|--------------------------|


                                            
                                      
---------------------------|--------------------------|
---------------------------|--------------------------|
------0-----0-----4-----0--|-----0-----0-----4-----0--|
---------4-----4-----4-----|--------2-----2-----2-----|
---2-----------------------|--0-----------------------|
---------------------------|--------------------------|


                                            
                                      
---------------------------|--------------------------|
---------------------------|--------------------------|
------0-----0-----4-----0--|-----0-----0-----4-----0--|
---------2-----2-----2-----|--------2-----2-----2-----|
---0-----------------------|--0-----------------------|
---------------------------|--------------------------|


                                            
                                      
---------------------------|--------------------------|
---------------------------|--------------------------|
------0-----0-----4-----0--|-----0-----0-----4-----0--|
---------2-----2-----2-----|--------4-----4-----4-----|
---0-----------------------|--2-----------------------|
---------------------------|--------------------------|


                                            
                                      
---------------------------|--------------------------|
---------------------------|--------------------------|
------0-----0-----4-----0--|-----0-----0-----4-----0--|
---------4-----4-----4-----|--------4-----4-----4-----|
---2-----------------------|--2-----------------------|
---------------------------|--------------------------|


                                            
                                      
---------------------------|--------------------------|
---------------------------|--------------------------|
------0-----0-----4-----0--|-----0-----0-----4-----0--|
---------4-----4-----4-----|--------2-----2-----2-----|
---2-----------------------|--0-----------------------|
---------------------------|--------------------------|


                                            
                                      
---------------------------|--------------------------|
---------------------------|--------------------------|
------0-----0-----4-----0--|-----0-----0-----4-----0--|
---------2-----2-----2-----|--------2-----2-----2-----|
---0-----------------------|--0-----------------------|
---------------------------|--------------------------|


                                                
                                      
---------------------------|--------------------------|
---------------------------|-----------------2--------|
------0-----0-----4-----0--|-----4-----4-----------4--|
---------2-----2-----------|--------------------------|
---0-----------------2-----|--4-----4-----4-----4-----|
---------------------------|--------------------------|


                                                                            
                                                         
------------------2--------|--------------------------|-------------------------|
------------------2--------|-----------------2--------|-----0-----------2-------|
------4-----4-----------4--|-----4-----4-----------4--|-----------4-------------|
---------------------------|--------------------------|--------------------2----|
---4-----4-----4-----4-----|--4-----4-----4-----4-----|--4-----4-----4----------|
---------------------------|--------------------------|-------------------------|


                                                   
                                        
---------------------------|---------------------------|
------------------------0--|------------------0--------|
-----0------------0--------|------------0-----------0--|
--------1h--2--2-----2-----|--1h--2--2-----2-----------|
---------------------------|---------------------2-----|
--0------------------------|---------------------------|


                                                   
                                        
---------------------------|--------------------------|
------------------------0--|------------------0-------|
-----0------------0--------|------------0-------------|
--------1h--2--2-----2-----|--1h--2--2-----2----------|
---------------------------|---------------------2----|
--0------------------------|--------------------------|


                                                  
                                       
---------------------------|---------------------------|
------------------2--------|---------------------------|
------------4-----------4--|------------4-----4-----4--|
---------------------------|---------------------------|
----4----4-----4-----4-----|--2h--4--4-----4-----------|
---------------------------|---------------------4-----|


                                                  
                                       
---------------------------|---------------------------|
---------------------------|---------------------------|
------0-----0-----4-----0--|------------0-----4-----0--|
---------2-----2-----2-----|--1h--2--2-----2-----------|
---0-----------------------|---------------------2-----|
---------------------------|---------------------------|


                                                                       
                                                     
---------------------------|--------------------------|-------------------|
------------------------0--|------------------0-------|-------------------|
-----0------------0--------|------------0-------------|--0----------------|
--------1h--2--2-----2-----|--1h--2--2-----2----------|--2----------------|
---------------------------|---------------------2----|--2----------------|
--0------------------------|--------------------------|--0----------------|

comments
We did not receive enough feedback on this tab! Please rate:
print report bad tab
1 2 3 4 5
I want to post or [tab]
guest
You may want to rate the tab now too:
select rating
Please do not post tabs as comments. Select "correction" instead!