Oops, an error
Loading. Please wait.

Heartbeats Tab

ver9
171,554 views 514 this week
16 commentsread comments
1 2 3 4 5
excellent!
x 45
Autoscroll
+/-
esc
set tempo
stop
Contributor
Difficulty
intermediate
WARNING: You are trying to view
                                    content from Ultimate-Guitar.com
                                    in an unauthorized application,
                                    which is prohibited.

                                    Please use an official Ultimate
                                    Guitar Tabs application for iPhone,
                                    iPad or Android to access legitimate
                                    chords, guitar, bass, and drum tabs
                                    from Ultimate-Guitar.com database.

                                    Type "ultimate guitar tabs" in Apple
                                    App Store's or Android Market's
                                    search to find the application.
-------------------------------------------------------------------------------
			     Heartbeats - José González
-------------------------------------------------------------------------------
Tabbed by: The_Don
Email: TBig.Don@googlemail.com

Tuning: DADF#BE
Capo: 1st Fret

A great song with loads of feeling in it. Sorry the tab is so long but he does little changes
throughout the song. I think this is accurate but still listen to the song very carefully
you want to play it completely accurate.

Remember to use the capo on 1st Fret, everything is relative to it.


	How to tune (Don't need capo for this):

e|------------------0--|
B|--------------0---5--|
G|----------0---5------|
D|------0---4----------|
A|--0---5--------------|
E|--7------------------|<---- Tune down so it sounds the same


	Intro:

E |---------------------------|------------------------|---------------------------|---------------------------|
B |---------------------------|------------------------|---------------------------|------------------0--------|
F#|------------------------3--|------------------3-----|------------------------3--|------------------3--------|
D |-----0-------0-----(0)-----|-------0-----(0)--------|-----0-------0-----(0)-----|-------0-----(0)--------0--|
A |--------4h5-----5----------|--4h5-----5----------0--|--------4h5-----5----------|--4h5-----5----------0-----|
D |--0------------------------|------------------------|--0------------------------|---------------------------|


E |-------------------------|----------------------|-----------------------------------------|
B |----------------0--------|----------------------|-----------------------------------------|
F#|----------------0--------|----------------------|------------0----------------------0-----|
D |----------4-----------4--|----------4-----4-----|---------0--------0-------0-----0--------|
A |--2----2-----2-----2-----|--0h2--2-----0--------|------5--------5-----4h5-----5--------0--|
D |-------------------------|-------------------4--|--5--------------------------------------|


E |-------------------------|------------------------|-------------------------|------------------------|
B |-------------------------|------------------------|-------------------------|------------------------|
F#|----------------------3--|------------------3-----|----------------------3--|------------------3-----|
D |-----------0-----(0)-----|-------0-----(0)--------|-----------0-----(0)-----|-------0-----(0)--------|
A |------4h5-----5----------|--4h5-----5----------0--|------4h5-----5----------|--4h5-----5----------0--|
D |--0----------------------|------------------------|--0----------------------|------------------------|


E |-------------------------|----------------------|-----------------------------------------|
B |----------------0--------|----------------------|-----------------------------------------|
F#|----------------0--------|----------------------|------------0----------------------0-----|
D |----------4-----------4--|----------4-----4-----|---------0--------0-------0-----0--------|
A |--2----2-----2-----2-----|--0h2--2-----0--------|------5--------5-----4h5-----5--------0--|
D |-------------------------|-------------------4--|--5--------------------------------------|


	Verse:

E |----------------------|------------------------|----------------------|-----------------------|
B |----------------------|------------------------|----------------------|-----------------------|
F#|-------------3--------|------------------3-----|-------------3--------|-----------------3-----|
D |----------0--------0--|-------0-----(0)--------|----------0--------0--|-------0---------------|
A |-----4h5--------5-----|--4h5-----5----------0--|-----4h5--------5-----|--4h5-----5---0-----0--|
D |--0-------------------|------------------------|--0-------------------|-----------------------|


E |-------------------------|----------------------|-----------------------------------------|
B |----------------0--------|----------------------|-----------------------------------------|
F#|----------------0--------|----------------------|------------0----------------------0-----|
D |----------4-----------4--|----------4-----4-----|---------0--------0-------0-----0--------|
A |--2----2-----2-----2-----|--0h2--2-----0--------|------5--------5-----4h5-----5--------0--|
D |-------------------------|-------------------4--|--5--------------------------------------|


E |----------------------|------------------------|----------------------|-----------------------|
B |----------------------|------------------------|----------------------|-----------------0-----|
F#|-------------3--------|------------------3-----|-------------3--------|-----------------3-----|
D |----------0--------0--|-------0-----(0)--------|----------0--------0--|-------0---------------|
A |-----4h5--------5-----|--4h5-----5----------0--|-----4h5--------5-----|--4h5-----5---0-----0--|
D |--0-------------------|------------------------|--0-------------------|-----------------------|

												    *With feeling*
E |-------------------------|----------------------|--------------------------------------------|----------------------|
B |----------------0--------|----------------------|--------------------------------------------|----------------------|
F#|----------------0--------|----------------------|------------0----------------------0--------|----------------0-----|
D |----------4-----------4--|----------4-----4-----|---------0--------0-------0-----0--------0--|-------0-----0--------|
A |--2----2-----2-----2-----|--0h2--2-----0--------|------5--------5-----4h5-----5--------5-----|--4h5-----5--------0--|
D |-------------------------|-------------------4--|--5-----------------------------------------|----------------------|


	Chorus:

E |----------------------|------------------------|-------------------------|-----------------------|
B |----------------------|------------------------|-------------------------|-----------------0-----|
F#|-------------3--------|------------------3-----|----------------------3--|-----------------3-----|
D |----------0--------0--|-------0-----(0)--------|-----------0-----(0)-----|-------0---------------|
A |-----4h5--------5-----|--4h5-----5----------0--|------4h5-----5----------|--4h5-----5---0-----0--|
D |--0-------------------|------------------------|--0----------------------|-----------------------|


E |-------------------------|----------------------|-----------------------------------------|
B |----------------0--------|----------------------|-----------------------------------------|
F#|----------------0--------|----------------------|------------0----------------------0-----|
D |----------4-----------4--|----------4-----4-----|---------0--------0-------0-----0--------|
A |--2----2-----2-----2-----|--0h2--2-----0--------|------5--------5-----4h5-----5--------0--|
D |-------------------------|-------------------4--|--5--------------------------------------|


	Break:
										    *With feeling*
E |-------------------------|------------------------|-------------------------|------------------------|
B |-------------------------|------------------------|-------------------------|------------------------|
F#|----------------------3--|------------------3-----|----------------------3--|------------------3-----|
D |-----------0-----(0)-----|-------0-----(0)--------|-----------0-----(0)-----|-------0-----(0)--------|
A |------4h5-----5----------|--4h5-----5----------0--|------4h5-----5----------|--4h5-----5----------0--|
D |--0----------------------|------------------------|--0----------------------|------------------------|


	Verse:

E |----------------------|----------------------|----------------------|--------------------------|
B |----------------------|----------------------|----------------------|--------------------------|
F#|-------------3--------|----------------3-----|-------------3--------|-----------------3--------|
D |----------0--------0--|-------0--------------|----------0--------0--|-------0---------------0--|
A |-----4h5--------5-----|--4h5-----5--0-----0--|-----4h5--------5-----|--4h5-----5---0-----0-----|
D |--0-------------------|----------------------|--0-------------------|--------------------------|


E |-------------------------|----------------------|-----------------------------------------|
B |----------------0--------|----------------------|-----------------------------------------|
F#|----------------0--------|----------------------|------------0----------------------0-----|
D |----------4-----------4--|----------4-----4-----|---------0--------0-------0-----0--------|
A |--2----2-----2-----2-----|--0h2--2-----0--------|------5--------5-----4h5-----5--------0--|
D |-------------------------|-------------------4--|--5--------------------------------------|


E |----------------------|---------------------------|----------------------|--------------------------|
B |----------------------|---------------------------|----------------------|--------------------------|
F#|-------------3--------|------------------3--------|-------------3--------|-----------------3--------|
D |----------0--------0--|-------0-----(0)--------0--|----------0--------0--|-------0---------------0--|
A |-----4h5--------5-----|--4h5-----5----------0-----|-----4h5--------5-----|--4h5-----5---0-----0-----|
D |--0-------------------|---------------------------|--0-------------------|--------------------------|

													*With feeling*
E |-------------------------|----------------------|-----------------------------------------|----------------------------------------|
B |----------------0--------|----------------------|-----------------------------------------|----------------------------------------|
F#|----------------0--------|----------------------|------------0----------------------0-----|-----------0----------------------0-----|
D |----------4-----------4--|----------4-----4-----|---------0--------0-------0-----0--------|--0-----0--------0-------0-----0--------|
A |--2----2-----2-----2-----|--0h2--2-----0--------|------5--------5-----4h5-----5--------5--|-----5--------5-----4h5-----5--------0--|
D |-------------------------|-------------------4--|--5--------------------------------------|----------------------------------------|


	Chorus:

E |----------------------|------------------------|-----------------------|-----------------------|
B |----------------------|------------------------|-----------------------|-----------------------|
F#|-------------3--------|------------------3-----|--------------3--------|-----------------3-----|
D |----------0--------0--|-------0-----(0)--------|-----------0--------0--|-------0---------------|
A |-----4h5--------5-----|--4h5-----5----------0--|------4h5--------5-----|--4h5-----5---0-----0--|
D |--0-------------------|------------------------|--0--------------------|-----------------------|


E |-------------------------|----------------------|-----------------------------------------|
B |----------------0--------|----------------------|-----------------------------------------|
F#|----------------0--------|----------------------|------------0----------------------0-----|
D |----------4-----------4--|----------4-----4-----|---------0--------0-------0-----0--------|
A |--2----2-----2-----2-----|--0h2--2-----0--------|------5--------5-----4h5-----5--------0--|
D |-------------------------|-------------------4--|--5--------------------------------------|

E |----------------------|------------------------|-------------------------|-----------------------|
B |----------------------|------------------------|-------------------------|-----------------------|
F#|-------------3--------|------------------3-----|----------------------3--|-----------------3-----|
D |----------0--------0--|-------0-----(0)--------|-----------0-----(0)-----|-------0---------------|
A |-----4h5--------5-----|--4h5-----5----------0--|------4h5-----5----------|--4h5-----5---0-----0--|
D |--0-------------------|------------------------|--0----------------------|-----------------------|


E |-------------------------|----------------------|--------------------------------------------|
B |----------------0--------|----------------------|--------------------------------------------|
F#|----------------0--------|----------------------|------------0----------------------0--------|
D |----------4-----------4--|----------4-----4-----|---------0--------0-------0-----0--------0--|
A |--2----2-----2-----2-----|--0h2--2-----0--------|------5--------5-----4h5-----5--------5-----|
D |-------------------------|-------------------4--|--5-----------------------------------------|


	Bridge:

E |----------------------------------|----------------------------------|
B |----------------------------------|----------------------------------|
F#|----------0----------------0------|----------0----------------0------|
D |--------0-----0----------0-----0--|--------0-----0----------0-----0--|
A |------7-----7----------7-----7----|------7-----7----------7-----7----|
D |--7----------------7--------------|--7----------------7--------------|


E |----------------------------------|----------------------------------|
B |----------------------------------|----------------------------------|
F#|----------0----------------0------|----------0----------------0------|
D |--------0-----0----------0-----0--|--------0-----0----------0-----0--|
A |------5-----5----------5-----5----|------5-----5----------5-----5----|
D |--5----------------5--------------|--5----------------5--------------|


E |----------------------------------|----------------------------------|
B |----------------------------------|----------------------------------|
F#|----------0----------------0------|----------0----------------0------|
D |--------0-----0----------7-----0--|--------0-----0----------0-----0--|
A |------7-----7----------7-----7----|------7-----7----------7-----7----|
D |--7----------------7--------------|--7----------------7--------------|


E |----------------------------------|----------------------------------|
B |----------------------------------|----------------------------------|
F#|----------0----------------0------|----------0----------------0------|
D |--------0-----0----------0-----0--|--------0-----0----------0-----0--|
A |------5-----5----------5-----5----|------5-----5----------5-----0----|
D |--5----------------5--------------|--5----------------5--------------|


E |-------------------------0------|---------------------------|
B |----------0--------------0------|----------0-----------0----|
F#|--------0-----0--------0-----0--|--------0-----0---3-0------|
D |------4-----4--------4-----4----|------4-----4--------------|
A |--2--------------2--------------|--2--------------2-2-2--0--|
D |--------------------------------|---------------------------|


	Chorus:

E |-------------------------|------------------------|--------------------------|--------------------------|
B |-------------------------|------------------------|--------------------------|--------------------------|
F#|----------------3--------|------------------3-----|-----------------3--------|-----------------3--------|
D |-----0-------0--------0--|-------0-----(0)--------|-----0--------0--------0--|-------0---------------0--|
A |--------4h5--------5-----|--4h5-----5----------0--|---------4h5--------5-----|--4h5-----5---0-----0-----|
D |--0----------------------|------------------------|--0-----------------------|--------------------------|


E |-------------------------|----------------------|-----------------------------------------|
B |----------------0--------|----------------------|-----------------------------------------|
F#|----------------0--------|----------------------|------------0----------------------0-----|
D |----------4-----------4--|----------4-----4-----|---------0--------0-------0-----0--------|
A |--2----2-----2-----2-----|--0h2--2-----0--------|------5--------5-----4h5-----5--------0--|
D |-------------------------|-------------------4--|--5--------------------------------------|

E |----------------------|------------------------|---------------------------|--------------------------|
B |----------------------|------------------------|---------------------------|-----------------0--------|
F#|-------------3--------|------------------3-----|------------------------3--|-----------------3--------|
D |----------0--------0--|-------0-----(0)--------|-----0-------0-----(0)-----|-------0---------------0--|
A |-----4h5--------5-----|--4h5-----5----------0--|--------4h5-----5----------|--4h5-----5---0-----0-----|
D |--0-------------------|------------------------|--0------------------------|--------------------------|


E |-------------------------|----------------------|-----------------------------------------|-----|
B |----------------0--------|----------------------|-----------------------------------------|-----|
F#|----------------0--------|----------------------|------------0----------------------0-----|--3--|
D |----------4-----------4--|----------4-----4-----|---------0--------0-------0-----0--------|--0--|
A |--2----2-----2-----2-----|--0h2--2-----0--------|------5--------5-----4h5-----5--------0--|--0--|
D |-------------------------|-------------------4--|--5--------------------------------------|-----|
comments
print report bad tab
16 comments total. Showing first comments.
0 reply
sseedell wrote on July 12 2006, 04:25 pm

Im certain this tab is the closest one on this site but i just cant get the timing right!! It just sounds nothing like the intro on the video when i play it and jose seems to play it a lot faster. Can anyone help?!

0 reply
The_Don wrote on July 16 2006, 04:07 am

It is the closest but some notes aren't played as loud as others in the actual song so you just need to listen out closely.

+3 reply
lavalampan wrote on August 7 2006, 05:56 pm

come on guys.. you have to give this a 5.. maybe josé just improvised. It's not that important to get it 100% correct

I want to post or [tab]
guest
You may want to rate the tab now too:
select rating
Please do not post tabs as comments. Select "correction" instead!