Oops, an error
Loading. Please wait.

In Our Nature Tab

ver1
ver1

Intro

Album

Whole song

More versions @911Tabs.com
6,017 views 30 this week
no commentswrite comment
1 2 3 4 5
excellent!
x 1
Autoscroll
+/-
esc
set tempo
stop
Contributor
Difficulty
intermediate
WARNING: You are trying to view
                                    content from Ultimate-Guitar.com
                                    in an unauthorized application,
                                    which is prohibited.

                                    Please use an official Ultimate
                                    Guitar Tabs application for iPhone,
                                    iPad or Android to access legitimate
                                    chords, guitar, bass, and drum tabs
                                    from Ultimate-Guitar.com database.

                                    Type "ultimate guitar tabs" in Apple
                                    App Store's or Android Market's
                                    search to find the application.
These tabs are not my own, they have merely been put together for the ease of access for others.
I hope you enjoy


How Low                              tabber: Jamminjohn

Tuning: D A D F# B e (Capo 1)

Verse/Chorus
|---------------------------------|---------------------------------|
|---------0---0---------0---0-----|---------0---0---------0---0-----|
|---------0---0---------0---0-----|---------0---0---------0---0-----|
|---x---x---2-----x---x---2-----x-|---x---x---2-----x---x---2-----x-|
|---------------------------------|---------------------------------|
|-2---2---------2---2---------2---|-2---2---------2---2---------2---|

|---------------------------------|---------------------------------|
|---------0---0---------0---0-----|---------0---0---------0---0-----|
|---------0---0---------0---0-----|---------0---0---------0---0-----|
|---x---x---2-----x---x---2-----x-|---x---x---2-----x---x---2-----x-|
|---------------------------------|---------------------------------|
|-0---0---------0---0---------0---|-2---2---------2---2---------2---|

Interlude
|-2p0---0-------------------------|-2p0---0-------------------------|
|-----3---0-------------0---0-----|-----3---0-------------0---0-----|
|-------------0---------0---0-----|-------------0---------0---0-----|
|-----------2-----x---x---2-----x-|-----------2-----x---x---2-----x-|
|---------------------------------|---------------------------------|
|-2---2---------2---2---------2---|-2---2---------2---2---------2---|

|-2p0---0-------------------------|---------------------------------|
|-----3---0---------------------0-|---------0---0---------0---0-----|
|-------------0---0---0---0-------|---------0---0---------0---0-----|
|-----------2---0---0---0---------|---x---x---2-----x---x---2-----x-|
|---------------------------------|---------------------------------|
|-0---0---------------------------|-2---2---------2---2---------2---|

Bridge
|---------------------------------|---------------------------------|
|---------0---0---------0---0-----|---------3---3---------3---3-----|
|---------1---1---------1---1-----|---------1---1---------1---1-----|
|-----------2-------------2-----2-|-----------2-------------2-----2-|
|-3---3---------3---3---------3---|-0---0---------0---0-------------|
|---------------------------------|-----------------------------0---|

|---------------------------------|---------------------------------|
|---------0---0---------0---0-----|---------0---0---------0---0-----|
|---------0---0---------0---0-----|---------0---0---------0---0-----|
|---x---x---2-----x---x---2-----x-|---x---x---2-------------2-------|
|---------------------------------|---------------------------------|
|-2---2---------2---2---------2---|-2---2---------2---2---------2---|

|---------------------------------|---------------------------------|
|---------0---0---------0---0-----|---------3---3---------3---3-----|
|---------1---1---------1---1-----|---------1---1---------1---1-----|
|-----------2-------------2-----2-|-----------2-------------2-----2-|
|-3---3---------3---3---------3---|-0---0---------0---0-------------|
|---------------------------------|-----------------------------0---|

|---------------------------------|-------------------12------------|
|---------0---0---------0---0-----|---------0---0----------0--------|
|---------0---0---------0---0-----|---------0---0-------10--12------|
|---x---x---2-----x---x---2-----x-|---x---x---2----------------12---|
|---------------------------------|---------------------------------|
|-2---2---------2---2---------2---|-2---2--------/10--------------0-|

How low
are you willing to go
before you reach all
your selfish goals.
Punch line after punch line
leaving us sore,
leaving us sore.

Absorbed
in your ill hustling
you're feeding a monster,
just feeding a monster.

Invasion
after invasian,
this means war,
this means war.

Someday you'll be up to your knees
in the shit you seed.
All the gullible
that you mislead
won't be up or it.

Where to
will you relocate
now that it's war.
Now that it's war

---------------------------------------------------------------------------------|
---------------------------------------------------------------------------------|

Down The Line                             tabber: Jamminjohn

Tuning: D A D G B e

Key:
^ down stroke
v up stroke
T continue the down stroke with a tap on the guitar body


Main theme
      T       T       T       T
 ^  v ^ v ^ v ^ v ^ v ^ v ^ v ^ v
|---0-0-0-0-0-0-0-0-0-0-0-0-0-0-0-|--0--0-0-0-0-0-0-0-0-0-0-0-0-0-0-|
|---5-5-5-5-5-5-5-5-5-5-5-5-5-5-5-|--5--5-5-5-5-5-5-3-3-3-3-3-3-3-3-|
|-----0---0---0---0---0---0-0-0-0-|-----0---0---0---0---0---0-0-0-0-|
|-0---0-------0-------0-----0-0-0-|-0---0-------0-------0-----0-0-0-|
|-7-------------------------7-7-7-|-5-------------------------5-5-5-|
|---------------------------------|---------------------------------|

|---0-0-0-0-0-0-0-0-0-0-0-0-0-0-0-|---0-0-0-0-0-0-0-0-0-0-0-0-0-0-0-|
|---5-5-5-5-5-5-5-5-5-5-5-5-5-5-5-|---5-5-5-5-5-5-5-3-3-3-3-3-0-0-0-|
|-----0---0---0---0---0---0---0---|-----0---0---0---0---0---0-0-0-0-|
|-0---0-------0-------0-------0---|-0---0-------0-------0-----0-0-0-|
|-4-------------------------------|-3-------------------------0-0-0-|
|---------------------------------|---------------------------0-0-0-|

Variation 1
|---7-7-7-7-7-7-7-7-7-7-7-7-7-7-7-|---7-7-7-7-7-7-7-7-7-7-7-7-7-7-7-|
|---5-5-5-5-5-5-5-5-5-5-5-5-5-5-5-|---5-5-5-5-5-5-5-5-5-5-5-5-5-5-5-|
|-----0---0---0---0---0---0-0-0-0-|-----0---0---0---0---0---0-0-0-0-|
|-0---0-------0-------0-----0-0-0-|-0---0-------0-------0-----0-0-0-|
|-7-------------------------7-7-7-|-5-------------------------5-5-5-|
|---------------------------------|---------------------------------|

|---7-7-7-7-7-7-7-7-7-7-7-7-7-7-7-|---7-7-7-7-7-7-7-5-5-5-5-5-0-0-0-|
|---5-5-5-5-5-5-5-5-5-5-5-5-5-5-5-|---5-5-5-5-5-5-5-5-5-5-5-5-0-0-0-|
|-----0---0---0---0---0---0---0---|-----0---0---0---0---0---0-0-0-0-|
|-0---0-------0-------0-------0---|-0---0-------0-------0-----0-0-0-|
|-4-------------------------------|-3-------------------------0-0-0-|
|---------------------------------|---------------------------0-0-0-|

Variation 2
|---------------------------------|---------------------------------|
|-----5-------5-------5-------5---|-----5-------5-------3-------3---|
|-----0---0---0---0---0---0---0---|-----0---0---0---0---0---0---0---|
|---------------------------------|---------------------------------|
|-7-------------------------------|-5-------------------------------|
|---------------------------------|---------------------------------|

|---------------------------------|---------------------0-0-x-0-0-0-|
|-----5-------5-------5-------5---|-----5-------5-------0-0-x-0-0-0-|
|-----0---0---0---0---0---0---0---|-----0---0---0---0---0-0-x-0-0-0-|
|---------------------------------|---------------------0-0-x-0-0-0-|
|-4-------------------------------|-3-------------------3-3-x-0-0-0-|
|---------------------------------|---------------------0-0-x-0-0-0-|

|---------------------0-0-0-0-0-0-|
|-----5-------5-------8-8-8-0-0-0-|
|-----0---0---0---0---0-0-0-0-0-0-|
|---------------------0-0-0-0-0-0-|
|-7-------------------------0-0-0-|
|---------------------------0-0-0-|

I see problems down the line
I know that I’m right.
There was a dirt upon your hands
doing the same mistake twice
making the same mistake twice

Come on over and be so caught up
its not about compromising.

I see problems down the line
I know that I’m right
I see darkness down the line
I know its hard to fight.
There was a dirt upon your hands
doing the same mistake twice
making the same mistake twice.

Come on over
be so caught up its all about compromise.

I see problems down the line
I know that I’m right.

Don’t let the darkness eat you up (8x)

---------------------------------------------------------------------------------|
---------------------------------------------------------------------------------|

Killing For Love                                 tabber: Evilpuppetmaste

Tuning: D G C G A d (Capo 3)

The rhythm is difficult to get from the tab... if you practice the bassline
separately to the high part, you'll see they each follow their own rhythm,
which is consistent throughout all the sections of the song.

Verse
d|-----------------------------|-----------------------------|
A|-----------0-------------0---|-----------0-------------0---|
g|----2---2---(2)---2---2---(2)|----0---0---------0---0------|
C|-----------0---2----2----0---|-----------0-------------0---|
G|------2----------------------|------0-------------0--------|
D|-0---------------------------|-3-------------5-------------|

d|-----------------------------|-----------------------------|
A|-----------0-------------0---|-----------0-------------0---|
g|----2---2---(2)---2---2---(2)|----0---0---------0---0------|
C|-----------0---2----2----0---|-----------0-------------0---|
G|------2----------------------|------0-------------0--------|
D|-0---------------------------|-3-------------5-------------|

d|------------------3p0--------|-----------------------------|
A|-----------0-------------3p0-|-----------0-------------0---|
g|----2---2---(2)--------------|----0---0---------0---0------|
C|-----------0---2----2----0---|-----------0-------------0---|
G|------2----------------------|------0-------------0--------|
D|-0---------------------------|-3-------------5-------------|

d|-----------------------------|-----------------------------|--------------|
A|-----------0-------------0---|-----------0-------------0---|-----------0--|
g|----2---2---(2)---2---2------|----0---0---------0---0------|----0---0-----|
C|-----------0-----------------|-----------0-------------0---|-----------0--|
G|------2--------2----2p0--0---|------0-------------0--------|------0-------|
D|-0---------------------------|-3-------------5-------------|-5------------|

Chorus
d|---(0)-(0)(0)----(0)-(0)(0)--|---(0)-(0)(0)----(0)-(0)-----|
A|----0---0--0------0---0--0---|----0---0--0------0---0--0---|
g|----2---2--2(2)---2---2--2(2)|----0---0--2(2)---0---0------|
C|-----------------------------|-----------------------------|
G|(2)--(2)--(2)-(2)--(2)--(2)--|-----------------------------|
D|-0----0----0---0----0----0---|-3----3----3---5----5----5---|

d|---(0)-(0)(0)----(0)-(0)(0)--|---(0)-(0)(0)----(0)-(0)-----|
A|----0---0--0------0---0--0---|----0---0--0------0---0--0---|
g|----2---2--2(2)---2---2--2(2)|----0---0--2(2)---0---0------|
C|-----------------------------|-----------------------------|
G|(2)--(2)--(2)-(2)--(2)--(2)--|-----------------------------|
D|-0----0----0---0----0----0---|-3----3----3---5----5----5---|

d|---(0)-(0)(0)----(0)-(0)(0)--|---(0)-(0)(0)----(0)-(0)-----|
A|----0---0--0------0---0--0---|----0---0--0------0---0--0---|
g|----2---2--2(2)---2---2--2(2)|----0---0--2(2)---0---0------|
C|-----------------------------|-----------------------------|
G|(2)--(2)--(2)-(2)--(2)--(2)--|-----------------------------|
D|-0----0----0---0----0----0---|-3----3----3---5----5----5---|

d|---(0)-(0)(0)----(0)-(0)(0)--|---(0)-(0)(0)----(0)-(0)-----|----0---0--0--|
A|----0---0--0------0---0--0---|----0---0--0------0---0--0---|----0---0--0--|
g|----2---2--2(2)---2---2--2(2)|----0---0--2-2----0---0------|----0---0--0--|
C|-----------------------------|-----------------------------|-----------7--|
G|(2)--(2)--(2)-(2)--(2)--(2)--|-----------------------------|-7----7----7--|
D|-0----0----0---0----0----0---|-3----3----3---5----5----5---|-5----5----5--|

Middle 8
d|-----------0------3---3--3---|---(0)-(0)(0)----(0)-(0)-----|
A|----0---0--0------0---0--0---|----0---0--0------0---0--0---|
g|----2---2--2------2---2--2---|----0---0--0------0---0--0---|
C|-2----2----2--2-----2----2---|-4----4----4---4----4----4---|
G|-3----3----3--3-----3----3---|-5----5----5---5----5----5---|
D|-----------------------------|-----------------------------|

d|---(0)-(0)(0)----(0)-(0)-----|---(0)-(0)(0)----(0)-(0)-----|
A|----0---0--0------0---0--0---|----0---0--0------0---0--0---|
g|----0---0--0------0---0--0---|----0---0--0------0---0--0---|
C|-7----7----7--7-----7----7---|-7----7----7---7----7----0---|
G|-7----7----7--7-----7----7---|-7----7----7---7----7----0---|
D|-----------------------------|-----------------------------|

d|-----------0------3---3--3---|---(0)-(0)(0)----(0)-(0)-----|
A|----0---0--0------0---0--0---|----0---0--0------0---0--0---|
g|----2---2--2------2---2--2---|----0---0--0------0---0--0---|
C|-2----2----2--2-----2----2---|-4----4----4---4----4----4---|
G|-3----3----3--3-----3----3---|-5----5----5---5----5----5---|
D|-----------------------------|-----------------------------|

d|---(0)-(0)(0)----(0)-(0)-----|---(0)-(0)(0)--0----0----0---|
A|----0---0--0------0---0--0---|----0---0--0---0----0----0---|
g|----0---0--0------0---0--0---|----0---0--0---0----0----0---|
C|-7----7----7--7-----7----7---|-9----9----9---9----9----9---|
G|-7----7----7--7-----7----7---|-7----7----7---7----7----7---|
D|-----------------------------|---------------0----0----0---|

What's the point
if you hate, die and kill for love.
What's the point with a love that
makes you hate and kill for.

You've got a heart on fire,
it's bursting with desires.

You've got a heart filled with passion.
Will you let it burn for hate or compassion.

What's the point
if you hate, die and kill for love.
Whats the point with a love that
makes you hate and kill for.

What's the point
if you hate, die and kill for love.
Whats the point with a love that
makes you hate and kill for.

You're killing for love.
You're killing for love.

You've got a heart on fire,
it's bursting with desires.

You've got a heart filled with passion.
Will you let it burn for hate or compassion.

What's the point
if you hate, die and kill for love.
Whats the point with a love that
makes you hate and kill for.

Killing for love.
Killing for love

----------------------------------------------------------------------------------|
----------------------------------------------------------------------------------|

In our Nature                          tabber: Evilpuppetmaste

Tuning: D A D G B e (Capo 1)

To get the same feel, mute the 2nd string (B) on the offbeat of the 1st and
3rd beats. I've indicated this with an M on the first bar of the verse.

Intro (let ring)
E|--------------------------|
B|-----------3--------------|
G|-----0--------------------|
D|--------4-----------------|
A|--0-----------------------|
D|--------------------------|

Verse
    1  &  2  &  3  &  4  &     1  &  2  &  3  &  4  &
E|--------------------------|-----------------0--------|
B|--3--M--3-----3--M--3-----|--3-----3-----3-----0-----|
G|--------5-----------5-----|--------5-----------5-----|
D|--------5-----------5-----|--------5-----------5-----|
A|--0--------0--0--------0--|--0--------0--0--------0--|
D|--------------------------|--------------------------|

E|--------------------------|--------------------0-----|
B|--3-----3-----3-----3-----|--3-----3-----3-----0-----|
G|--------5-----------5-----|--------5-----------------|
D|--------5-----------5-----|--------5-----------------|
A|--0--------0--0--------0--|--0--------0--0--------0--|
D|--------------------------|--------------------------|

E|--------------------------|-----------------0--------|
B|--3-----3-----3-----3-----|--3-----3-----3-----0-----|
G|--------5-----------5-----|--------5-----------5-----|
D|--------5-----------5-----|--------5-----------5-----|
A|--0--------0--0--------0--|--0--------0--0--------0--|
D|--------------------------|--------------------------|

E|--------------------------|-------------------(0)----|
B|--3-----3-----3-----3-----|--3-----3-----0-----0-----|
G|--------5-----------5-----|--------5-----5-----5-----|
D|--------5-----------5-----|--------5-----------------|
A|--0--------0--0--------0--|--0--------------0-----0--|
D|--------------------------|-----------0--5-----------|

Chorus
E|--0-----0-----0-----0-----|--0-----0-----0-----0-----|
B|--0-----0-----0-----0-----|--0-----0-----0-----0-----|
G|--------------------------|--------------------------|
D|--------4-----------4-----|--------4-----------4-----|
A|--------------------------|--------------------------|
D|--5--------5--5--------5--|--5--------5--4--------4--|

E|--------------------------|--------0-----3-----5-----|
B|--3-----3-----3-----3-----|--3-----0-----------0-----|
G|--------5-----------5-----|--------------------------|
D|--------5-----------5-----|--------------------------|
A|--0--------0--0--------0--|--0--------0--0--------0--|
D|--------------------------|--------------------------|

E|--5-----5-----5-----5-----|--5-----------------------|
B|--0-----0-----0-----0-----|--0-----0-----0-(0)-0-(0)-|
G|--------------------------|--------0-----0-----0-----|
D|--------4-----------4-----|--------------------------|
A|--------------------------|--------3--2--0-----------|
D|--5--------5--5--------5--|--5--------------0--4--5--|

Second Chorus - Ending
E|--------------------------|--------------------------|
B|--3-----3-----3-----3-----|--3-----0-----0-(0)-0-(0)-|
G|--------5-----------5-----|--------0-----0-----0-----|
D|--------5-----------5-----|--------------------------|
A|--0--------0--0--------0--|--0-----3--2--0-----------|
D|--------------------------|-----------------0--4--5--|

E|--------------0-----0-----|--0-----------------------|
B|--------3-----0-----0-----|--0-----0-----0-(0)-0-(0)-|
G|--------5-----5-----5-----|--5-----0-----0-----0-----|
D|--------5-----------------|--------------------------|
A|--0--------0--0--------0--|--0-----3--2--0-----------|
D|--0--------0--0--------0--|--0--------------0--4--5--|

It's in our nature.
It's in our nature.
It's in our nature.
It's in our nature.

Put down your sword.
Send home your dogs.
Open up your doors.
Let down your guard.

It's in our nature.
It's in our nature.
It's in our nature.
It's in our nature.

Put down your gun.
Ignore the alarm.
Open up your heart.
Let down your guard.

It's in our nature.
It's in our nature.
It's in our nature.
It's in our nature.
It's in our nature

--------------------------------------------------------------------------------|
--------------------------------------------------------------------------------|

Teardrop                              tabber: Jamminjohn

Tuning: D A D A B e

Intro                           x4
|---------0---------------0-------|
|-3---------------3---------------|
|-----0-------0-------0-------0---|
|---0---0---0---0---0---0---0---0-|
|---------------------------------|
|---------------------------------|

Verse 1
|---------0---------------0-------|---------0---------------0-------|
|-3---------------3---------------|-3---------------3---------------|
|-----0-------0-------0-------0---|-----0-------0-------0-------0---|
|---0---0---0---0---0---0---0---0-|---0---0---0---0---0---0---0---0-|
|---------------------------------|---------------------------------|
|---------------------------------|---------------------------------|
                                                                  x2
|---------0---------------0-------|---------0---------------0-------|
|-3---------------3---------------|-3---------------3---------------|
|-----0-------0-------0-------0---|-----0-------0-------0-------0---|
|---5---5---5---5---5---5---5---5-|---0---0---0---0---0---0---0---0-|
|---------------------------------|---------------------------------|
|---------------------------------|---------------------------------|

|---------0---------------0-------|---------0---------------0-------|
|-3---------------3---------------|-3---------------3---------------|
|-----0-------0-------0-------0---|-----0-------0-------0-------0---|
|---3---3---3---3---3---3---3---3-|---5---5---5---5---5---5---5---5-|
|---------------------------------|---------------------------------|
|---------------------------------|---------------------------------|

|---------0---------------0-------|---------------------------------|
|-3---------------3---------------|-3-------3--------3------3-------|
|-----0-------0-------0-------0---|-----0-------0-------0-------0---|
|---0---0---0---0---0---0---0---0-|---0---0---0---0---0---0---0---0-|
|---------------------------------|---------------------------------|
|---------------------------------|---------------------------------|
                                x4
|---------------------------------|
|-3-------3-------3-------3-------|
|-----0-------0-------0-------0---|
|---0---0---0---0---0---0---0---0-|
|(0)------------------------------|
|-0-----0-0-------0-----0-0-------|

Verse 2
|---------------------------------|---------------------------------|
|-3-------3-------3-------3-------|-3-------3-------3-------3-------|
|-----0-------0-------0-------0---|-----0-------0-------0-------0---|
|---0---0---0---0---0---0---0---0-|---0---0---0---0---0---0---0---0-|
|---------------------------------|---------------------------------|
|-0-----0-0-------0-----0-0-------|-0-----0-0-------0-----0-0-------|

                                                                  x2

|---------------------------------|---------------------------------|
|-3-------3-------3-------3-------|-3-------3-------3-------3-------|
|-----0-------0-------0-------0---|-----0-------0-------0-------0---|
|---0---0---0---0---0---0---0---0-|---0---0---0---0---0---0---0---0-|
|---------------------------------|---------------------------------|
|-5-----5-5-------5-----5-5-------|-0-----0-0-------0-----0-0-------|

|---------------------------------|---------------------------------|
|-3-------3-------3-------3-------|-3-------3-------3-------3-------|
|-----0-------0-------0-------0---|-----0-------0-------0-------0---|
|---0---0---0---0---0---0---0---0-|---0---0---0---0---0---0---0---0-|
|---------------------------------|---------------------------------|
|-3-----3-3-------3-----3-3-------|-5-----5-5-------5-----5-5-------|

|-------------------------3-------|
|-3-------3-------3-----------3---|
|-----0-------0-------0-----0---0-|
|---0---0---0---0---0---0---------|
|(0)------------------------------|
|-0-----0-0-------0-------0-------|


Interlude 1
|-5-------5-------5-------5-------|-8-------8-------8-------8-------|
|-----3-------3-------3-------3---|-----5-------5-------5-------5---|
|---0---0---0---0---0---0---0---0-|---0---0---0---0---0---0---0---0-|
|-0-----0-0-------0-----0-0-------|-0-----0-0-------0-----0-0-------|
|---------------------------------|---------------------------------|
|---------------------------------|---------------------------------|

|-8-------8-------8-------8-------|-8-------8-------8-------8-------|
|-----8-------8-------8-------8---|-----8-------8-------8-------8---|
|---0---0---0---0---0---0---0---0-|---0---0---0---0---0---0---0---0-|
|-0-----0-0-------0-----0-0-------|-0-----0-0-------0-----0-0-------|
|---------------------------------|---------------------------------|
|---------------------------------|---------------------------------|

Verse 3
|---------------------------------|---------------------------------|
|-3-------3-------3-------3-------|-3-------3-------3-------3-------|
|-----0-------0-------0-------0---|-----0-------0-------0-------0---|
|---0---0---0---0---0---0---0---0-|---0---0---0---0---0---0---0---0-|
|(0)------------------------------|(0)------------------------------|
|-0-----0-0-------0-----0-0-------|-0-----0-0-------0-----0-0-------|
                                                                  x2
|---------------------------------|---------------------------------|
|-3-------3-------3-------3-------|-3-------3-------3-------3-------|
|-----0-------0-------0-------0---|-----0-------0-------0-------0---|
|---0---0---0---0---0---0---0---0-|---0---0---0---0---0---0---0---0-|
|---------------------------------|(0)------------------------------|
|-5-----5-5-------5-----5-5-------|-0-----0-0-------0-----0-0-------|

|---------------------------------|---------------------------------|
|-3-------3-------3-------3-------|-3-------3-------3-------3-------|
|-----0-------0-------0-------0---|-----0-------0-------0-------0---|
|---0---0---0---0---0---0---0---0-|---0---0---0---0---0---0---0---0-|
|---------------------------------|---------------------------------|
|-3-----3-3-------3-----3-3-------|-5-----5-5-------5-----5-5-------|

|---------------------------------|
|-3-------3-------3-------3-------|
|-----0-------0-------0-------0---|
|---0---0---0---0---0---0---0---0-|
|(0)------------------------------|
|-0-----0-0-------0-----0-0-------|

|---------------------------------|---------------------------------|
|-3-------3-------3-------3-------|-3-------3-------3-------3-------|
|-----0-------0-------0-------0---|-----0-------0-------0-------0---|
|---0---0---0---0---0---0---0---0-|---0---0---0---0---0---0---0---0-|
|---------------------------------|---------------------------------|
|-3-----3-3-------3-----3-3-------|-5-----5-5-------5-----5-5-------|

|-------------------------3-------|
|-3-------3-------3-----------3---|
|-----0-------0-------0-----0---0-|
|---0---0---0---0---0---0---------|
|---------------------------------|
|-3-----3-3-------3-------0-------|

Interlude 2
|-5-------5-------5-------5-------|-8-------8-------8-------8-------|
|-----3-------3-------3-------3---|-----5-------5-------5-------5---|
|---0---0---0---0---0---0---0---0-|---0---0---0---0---0---0---0---0-|
|---------------------------------|---------------------------------|
|(0)-----(0)-----(0)-----(0)------|(0)-----(0)-----(0)-----(0)------|
|-0-----0-0-------0-----0-0-------|-0-----0-0-------0-----0-0-------|

|10------10------10------10-------|10------10------10------10-------|
|-----8-------8-------8-------8---|----10------10------10------10---|
|---0---0---0---0---0---0---0---0-|---0---0---0---0---0---0---0---0-|
|---------------------------------|---------------------------------|
|(0)-----(0)-----(0)-----(0)------|(0)-----(0)-----(0)-----(0)------|
|-0-----0-0-------0-----0-0-------|-0-----0-0-------0-----0-0-------|

|---------------------------------|---------------------------------|
|10------10------10------10-------|10------10------10------10-------|
|-----0-------0-------0-------0---|-----0-------0-------0-------0---|
|---0---0---0---0---0---0---0---0-|---0---0---0---0---0---0---0---0-|
|---------------------------------|---------------------------------|
|-8-----8-8-------8-----8-8-------|10----10-10-----10----10-10------|

|---------------------------------|----------------10------10-------|
|10------10------10------10-------|10------10----------10------10---|
|-----0-------0-------0-------0---|-----0-------0-----0---0---0---0-|
|---0---0---0---0---0---0---0---0-|---0---0---0---0-----------------|
|---------------------------------|---------------------------------|
|-8-----8-8-------8-----8-8-------|10----10-10-----10----10-10------|

|-0---0---0-----------------------|
|-3---3---3-----------------------|
|-0---0---0-----------------------|
|-0---0---0-----------------------|
|-0---0---0-----------------------|
|-0---0---0-----------------------|

Love, love is a verb
Love is a doing word
Fearless on my breath
Gentle impulsions
Shakes me makes me lighter
Fearless on my breath

Teardrop on the fire
Fearless on my breath

Nine, night of matter
Black flowers blossom
Fearless on my breath
Black flowers blossom
Fearless on my breath

Teardrop on the fire
Fearless on my breath

Water is my eye
Most faithful mirror
Fearless on my breath
Teardrop on the fire of a confession
Fearless on my breath
Most faithful mirror
Fearless on my breath

Teardrop on the fire
Fearless on my breath

You're stumbling in the dark
You're stumbling in the dark

------------------------------------------------------------------------------------|
------------------------------------------------------------------------------------|

Abram                                   tabber: Danbs07

Tuning - D A D A B e (Capo on 2)

Not %100 with this tab but I think Im going in the right direction.Please tell me what
think or even better use this tab to improve.


|------------------------------------------------------------------|
|-------0-------0-------0-------0-------0-------0-------0-------0--|
|-----0-------0-------0-------0-------0-------0-------0-------0----|
|---2-------0-----------------------4-------2-------0--------------|
|-------------------4-------2-------------------------------4------|
|-2-------2-------2-------2-------2-------2-------2-------2--------|

|-------0-------0-------0---0---0----------------------------------|
|-------0-------0-------0---0---0-------0-------0-------0-------0--|
|-----0-------0-------0-------0-------0-------0-------0-------0----|
|---0-------------------------------2-------2-------2-------2------|
|-----------4-------2-------0--------------------------------------|
|-0-------0-------0-------0-------2-------2-------2-------2--------|

|---0-------0-------0-------0--------------------------------------|
|---0---0---3---0---2---0---0---0-------0-------0-------0-------0--|
|-----0-------0-------0-------0-------0-------0-------0-------0----|
|---2-------0-----------------------2-------2-------2-------2------|
|-------------------0-------2--------------------------------------|
|-2-------2-------2-------2-------2-------2-------2-------2--------|

|---2~------0------------------------------------------------------|
|-------0-------0---3---0------0-------0-------0-------0-------0---|
|-----0-------0-------0---\8-0-------0-------0-------0-------0-----|
|---0---------------------\7-------2-------2-------2-------2-------|
|-----------4~------0----------------------------------------------|
|-0-------0-------0-------0------2-------2-------2-------2---------|

not %100 about this bit below
|------------------------------------------------------------------|
|-----0---0---0-------------0--------------------------------------|
|-----0---0---0-----------0----------------------------------------|
|-----------------------2------------------------------------------|
|---2-2-2---2---4p2p0----------------------------------------------|
|-0-------------------2--------------------------------------------|

Abram, either wake up or go to bed
You're sleepwalking with a delirious head
You were programmed a long, long, long time ago
Your stories are old, old and your acclimation is slow

Oh, go to sleep

Not much of what you say makes any sense
Cook up some myths then ask for obedience
Even though you mean well, well most of the time
You've aided delusions and created bias in our minds

Oh, go to sleep

-----------------------------------------------------------------------------------|
-----------------------------------------------------------------------------------|

Time to Send Someone Away                     tabber: Jamminjohn

Tuning: D A D A B e

Main Riff/1st Verse
|---------------------------------|---------------------------------|
|---------------------------------|---------------------------------|
|-------------0---------------0---|-------------0---------------0---|
|-----0---0-----------0---0-------|-----0---0-----------0---0-------|
|-------------5---------------5---|-------------5---------------5---|
|-5-----5---------5-----5---------|-5-----5---------5-----5---------|

|---------------------------------|---------------------------------|
|---------------------------------|---------------------------------|
|-------------0---------------0---|-------------0---------------0---|
|-----0---0-----------0---0-------|-----0---0-----------0---0-------|
|-------------5---------------5---|-------------5---------------5---|
|-5-----5---------5-----5---------|-5-----5---------5-----5---------|


1st Chorus
|---------------------------------|---------------------------------|
|---------------------------------|---------------------------------|
|-------------0---------------0---|-------------0---------------0---|
|-----0---0-----------0---0-------|-----0---0-----------0---0-------|
|-------------5---------------5---|-------------5---------------5---|
|-3-----3---------3-----3---------|-3-----3---------3-----3---------|

|---------------------------------|---------------------------------|
|---------------------------------|---------------------------------|
|-------------0---------------0---|-------------0---------------0---|
|-----0---0-----------0---0-------|-----0---0-----------0---0-------|
|-------------5---------------5---|-------------5---------------5---|
|-3-----3---------3-----3---------|-3-----3---------0-----3---------|


Interlude
|---------------------------------|---------------------------------|
|---------------------------------|---------------------------------|
|-------------2---3-----------0---|-------------2---3-----------0---|
|-----0---0-----------0---0-------|-----0---0-----------0---0-------|
|-------------5---------------5---|-------------5---------------5---|
|-5-----5---------5-----5---------|-5-----5---------5-----5---------|

|---------------------------------|---------------------------------|
|-----------------------------0---|-------------0-------------------|
|-------------0---------------0---|-------------0---------------0---|
|-----0---0-----------0---0-------|-----0---0-----------0---0-------|
|-------------5---------------5---|-------------5-------------------|
|-5-----5---------5-----5---------|-5-----5---------5-----5-----0---|


2nd Verse
|---------------------------------|---------------------------------|
|---------------------------------|---------------------------------|
|-------------0---------------0---|-------------0---------------0---|
|-----0---0-----------0---0-------|-----0---0-----------0---0-------|
|-------------5---------------5---|-------------5---------------5---|
|-5-----5---------5-----5---------|-5-----5---------5-----5---------|

|---------------------------------|---------------------------------|
|---------------------------------|---------------------------------|
|---------------------------------|-------------0---------------0---|
|-----0---0-----------0---0-------|-----0---0-----------0---0-------|
|-------------5---------------5---|-------------5---------------5---|
|-5-----5---------5-----5---------|-5-----5---------5-----5---------|


2nd Chorus
|---------------------------------|---------------------------------|
|---------------------------------|---------------------------------|
|-------------0---------------0---|-------------0---------------0---|
|-----0---0-----------0---0-------|-----0---0-----------0---0-------|
|-------------8---------------8---|-------------8---------------8---|
|-8-----8---------8-----8---------|-8-----8---------8-----8---------|

|---------------------------------|---------------------------------|
|---------------------------------|---------------------------------|
|-------------0---------------0---|-------------0---------------0---|
|-----0---0-----------0---0-------|-----0---0-----------0---0-------|
|-------------5---------------5---|-------------5---------------5---|
|-5-----5---------5-----5---------|-5-----5---------5-----5---------|

|---------------------------------|---------------------------------|
|---------------------------------|---------------------------------|
|-------------0---------------0---|-------------0---------------0---|
|-----0---0-----------0---0-------|-----0---0-----------0---0-------|
|-------------8---------------8---|-------------8--------------10---|
|-8-----8---------8-----8---------|-8-----8--------10----10---------|

|---------------------------------|---------------------------------|
|---------------------------------|---------------------------------|
|-------------0---------------0---|-------------0---------------0---|
|-----0---0-----------0---0-------|-----0---0-----------0---0-------|
|-------------5---------------5---|-------------5---------------5---|
|-5-----5---------5-----5---------|-5-----5---------0-----3---------|


3rd Verse
|---------------------------------|---------------------------------|
|---------------------------------|---------------------------------|
|-------------0---------------0---|-------------0---------------0---|
|-----0---0-----------0---0-------|-----0---0-----------0---0-------|
|-------------5---------------5---|-------------5---------------5---|
|-5-----5---------5-----5---------|-5-----5---------5-----5---------|

|---------------------------------|---------------------------------|
|---------------------------------|---------------------------------|
|-------------0---------------0---|-------------0---------------0---|
|-----0---0-----------0---0-------|-----0---0-----------0---0-------|
|-------------5---------------5---|-------------5---------------5---|
|-5-----5---------5-----5---------|-5-----5---------5-----5---------|


Interlude/Outro
|---------------------------------|---------------------------------|
|---------------------------------|---------------------------------|
|-------------2---3-----------0---|-------------2---3-----------0---|
|-----0---0-----------0---0-------|-----0---0-----------0---0-------|
|-------------5---------------5---|-------------5---------------5---|
|-5-----5---------5-----5---------|-5-----5---------5-----5---------|

|---------------------------------|---------------------------------|
|-----------------------------0---|-----0-------0-------------------|
|-------------0---------------0---|-----0-------0---------------0---|
|-----0---0-----------0---0-------|---------0-----------0---0-------|
|-------------5---------------5---|-------------5-------------------|
|-5-----5---------5-----5---------|-5-----5---------5-----5-----0---|


Outro
|---------2p0-----0---------------|---------------------------------|
|---------0---3-------0-----------|---------------------------------|
|-----------------------------0---|-------------0---------------0---|
|-----0---------------0---0-------|-----0---0-----------0---0-------|
|-------------5---------------5---|-------------5---------------5---|
|-5-----5---------5-----5---------|-5-----5---------5-----5---------|

|---------------------------------|---------------------------------|
|---------------------------------|---------------------------------|
|-------------0---------------0---|-------------0---------------0---|
|-----0---0-----------0---0-------|-----0---0-----------0---0-------|
|-------------5---------------5---|-------------5---------------5---|
|-5-----5---------5-----5---------|-5-----5---------5-----5---------|

Sad how you've been all lead astray.
Go on count your chins.
Wolves are all lined up waiting.
A trick is to not move.
Showing off with jewelry.
Humiliation will be your new rule.

Time to send someone away,
not me I'm not in.

Sad how you've been all lead astray.
They lead you to their maze
when no ones asked them to.
But hey you're walking over bodies
just to witness something new.
Just to witness something new.

Time to send someone away,
not me I'm not in.

Feel that summer rain, it's in your face again.
Feel that summer rain, it's in your face again

-----------------------------------------------------------------------------------|
-----------------------------------------------------------------------------------|

The Nest                tabber: TBezza

Tuning - D A D D A d

|---------0------------0-----------0-----------0-----|
|-----------0------------0-----------0-----------0---|
|-------------0------------0-----------0-----------0-|
|----------------------------------------------------|
|------10-----------10----------10----------10-------|
|--10-----------10-----------9-----------9-----------|

|-------0----------0----------0------------0----|
|---------0----------0----------0---------------|
|-----------0----------0----------0-------------|
|-----0----------0----------0------------0------|
|-----------------------------------------------|
|--7----------5----------4----------4h-5-----7--|

|---------0------------0-----------0----------0-----|
|-----------0------------0-----------0----------0---|
|-------------0------------0-----------0----------0-|
|---------------------------------------------------|
|------10-----------10----------10----------0-------|
|--10-----------10-----------9-----------9----------|

|-------0----------0----------0-----------0-----|
|---------0----------0----------0-----------0---|
|-----------0----------0----------0-----------0-|
|-----0-----------------------------------------|
|----------------7----------9----------10-------|
|--0----------0----------0----------0-----------|

|---------0------------0-----------0-----------0-----|
|-----------0------------0-----------0-----------0---|
|-------------0------------0-----------0-----------0-|
|----------------------------------------------------|
|------10-----------10----------10----------10-------|
|--10-----------10-----------9-----------9-----------|

|-------0----------0----------0------------0----|
|---------0----------0----------0---------------|
|-----------0----------0----------0-------------|
|-----0----------0----------0------------0------|
|-----------------------------------------------|
|--7----------5----------4----------4h-5-----7--|

|---------0------------0-----------0-----------0-----|
|-----------0------------0-----------0-----------0---|
|-------------0------------0-----------0-----------0-|
|----------------------------------------------------|
|------10-----------10----------10----------10-------|
|--10-----------10-----------9-----------9-----------|

|-------0----------0----------0----------0-----|
|---------0----------0----------0----------0---|
|-----------0----------0----------0----------0-|
|-----0----------0-----------------------------|
|---------------------------7----------9-------|
|--0----------0----------0----------0----------|

|---------0------------0-----------0-----------0-----|
|-----------0------------0-----------0-----------0---|
|-------------0------------0-----------0-----------0-|
|----------------------------------------------------|
|------10-----------10----------10----------10-------|
|--10-----------10-----------9-----------9-----------|

|-------0----------0----------0------------0----|
|---------0----------0----------0---------------|
|-----------0----------0----------0-------------|
|-----0----------0----------0------------0------|
|-----------------------------------------------|
|--7----------5----------4----------4h-5-----7--|

|---------0------------0-----------0-----------0-----|
|-----------0------------0-----------0-----------0---|
|-------------0------------0-----------0-----------0-|
|----------------------------------------------------|
|------10-----------10----------10----------10-------|
|--10-----------10-----------9-----------9-----------|

|-------0----------0----------0----------0-----|
|---------0----------0----------0----------0---|
|-----------0----------0----------0----------0-|
|-----0----------0-----------------------------|
|---------------------------7----------0-------|
|--0----------0----------0----------0----------|

|-------0----------0----------0----------0-----|
|---------0----------0----------0----------0---|
|-----------0----------0----------0----------0-|
|----------------------------------------------|
|-----8----------8----------8----------8-------|
|--8----------8----------8----------8----------|

|-------0----------0----------0----------0-----|
|---------0----------0----------0----------0---|
|-----------0----------0----------0----------0-|
|----------------------------------------------|
|-----9----------9----------7----------5-------|
|--7----------7----------7----------7----------|

|-------0----------0----------0-----------0-----|
|---------0----------0----------0-----------0---|
|-----------0----------0----------0-----------0-|
|-----------------------------------------------|
|-----8----------8----------8----------10-------|
|--8----------8----------8----------8-----------|

|-------0----------0----------0-----------0-----|
|---------0----------0----------0-----------0---|
|-----------0----------0----------0-----------0-|
|-----------------------------------------------|
|-----9----------7----------9----------10-------|
|--7----------7----------7----------7-----------|

|---------0------------0-----------0-----------0-----|
|-----------0------------0-----------0-----------0---|
|-------------0------------0-----------0-----------0-|
|----------------------------------------------------|
|------10-----------10----------10----------10-------|
|--10-----------10-----------9-----------9-----------|

|-------0----------0----------0------------0----|
|---------0----------0----------0---------------|
|-----------0----------0----------0-------------|
|-----0----------0----------0------------0------|
|-----------------------------------------------|
|--7----------5----------4----------4h-5-----7--|

|---------0------------0-----------0----------0-----|
|-----------0------------0-----------0----------0---|
|-------------0------------0-----------0----------0-|
|---------------------------------------------------|
|------10-----------10----------10----------0-------|
|--10-----------10-----------9-----------9----------|

|-------0----------0-----0---------0----------|
|---------0----------0--------0---------10----|
|-----------0----------0----------------------|
|-----0----------0----------0---0-----0----0--|
|---------------------------------------------|
|--0----------0----------0---------0----------|

|---0-----0-------0-----7-------0----0------0----7-----|
|--10-----0------10-----0------10----0-----10----0-----|
|--------------0-------------0-----------0-----------0-|
|------------------------------------------------------|
|------------------------------------------------------|
|--10--10---10---10--10---10----9--9---9----9--9---9---|

|--5----4-----2----2h0----------0-----2----4-----|
|-------0------------0-----0----0----------0-----|
|-----------0------------0----------0----------0-|
|------------------------------------------------|
|--0--0---0---0--0-----0-------------------------|
|--------------------------4--4---4---5--5---7---|

|---0-----0-------0-----7-------0----0------0----7-----|
|--10-----0------10-----0------10----0-----10----0-----|
|--------------0-------------0-----------0-----------0-|
|------------------------------------------------------|
|------------------------------------------------------|
|--10--10---10---10--10---10----9--9---9----9--9---9---|

|--0-----------0-----------0-----------0-----------|
|--------0-----------0-----------0-----------0-----|
|------0-----0-----0-----0-----0-----0-----0-----0-|
|----0-----0-----0-----0-----0-----0-----0-----0---|
|--------------------------------------------------|
|--0-----0-----0-----0-----0-----0-----0-----0-----|

|---0-----0-------0-----7-------0----0------0----7-----|
|--10-----0------10-----0------10----0-----10----0-----|
|--------------0-------------0-----------0-----------0-|
|------------------------------------------------------|
|------------------------------------------------------|
|--10--10---10---10--10---10----9--9---9----9--9---9---|

|--5----4-----2----2h0----------0-----2----4-----|
|-------0------------0-----0----0----------0-----|
|-----------0------------0----------0----------0-|
|------------------------------------------------|
|--0--0---0---0--0-----0-------------------------|
|--------------------------4--4---4---5--5---7---|

|---0-----0-------0-----7-------0----0------0----7-----|
|--10-----0------10-----0------10----0-----10----0-----|
|--------------0-------------0-----------0-----------0-|
|------------------------------------------------------|
|------------------------------------------------------|
|--10--10---10---10--10---10----9--9---9----9--9---9---|

|--0-----------0---------------5---0---0----0----0---|
|--------0-----------0-----0---0-0-0---0----0----0---|
|------0-----0-----0-----0-----0-----0---0----0----0-|
|----0-----0-----0-----0-----0-----------0-----------|
|----------------------------------7---9---10---12---|
|--0-----0-----0-----0-----0-----0-------------------|

|---------0------------0-----------0-----------0-----|
|-----------0------------0-----------0-----------0---|
|-------------0------------0-----------0-----------0-|
|----------------------------------------------------|
|------10-----------10----------10----------10-------|
|--10-----------10-----------9-----------9-----------|

|-------0----------0----------0------------0----|
|---------0----------0----------0---------------|
|-----------0----------0----------0-------------|
|-----5----------5----------5------------5------|
|--0--------------------------------------------|
|-------------5----------4----------4h-5-----7--|

|---------0------------0-----------0-----------0-----|--0----------------||
|-----------0------------0-----------0-----------0---|--0----------------||
|-------------0------------0-----------0-----------0-|--0----------------||
|----------------------------------------------------|--0----------------||
|------10-----------10----------10----------10-------|--0----------------||
|--10-----------10-----------9-----------9-----------|--0----------------||

Saw them gathering sticks from the ground
By the thicket while assembling a nest
on the alert for any lingering threats
building frantically without any rest

Walls grew dense and blocked out the sun
caving in everyone
Darkness fell wiped out a once joyous tone
then famished, like posessed end up eating their own.

Saw them gathering sticks from the ground
by the thicket while assembling the nest

-----------------------------------------------------------------------------------|
-----------------------------------------------------------------------------------|

Fold           tabber: Remain

Tuning: B A D F# B e

I´ve been trying to learn this song for a long time now (ofcourse not the whole time),
and this is strictly by ear, because there hasn´t been any good tabs of this song out there.
This song is not 100% correct of how José plays it, but it´is as close as I can get to it.
Hopefully this will help you learn to play this song, see it as a guide as there are no
tab books with José. Also, this song needs patience, patience, patience, patience and a whole
lot of feeling and lots of patience (if you didn´t get it the first 4 times). I´ve tried to
put up some guidelines in this tab, but if you don´t understand, send me a e-mail
below).
I will try to answer as fast as I can. If I don´t, I´m probably dead or drunk.... or busy!

Verse:

Right hand:
During the verse I play B, A and D string with my thumb and
the F# with my middle finger and B with my ringfinger.

Left hand:
Middlefinger on A, indexfinger on D and making the hammer-pulloff
with your ringfinger. This only work in the first part, but then you
have to adjust and make the pulloff with your pinky.

The verse consists of 3 chords, I´m not gonna write down the whole
progression. You have to listen to the song and learn it.


|---------------------------------------------------------------------|
|-------------------------0--------------------0----------------------|
|--------0---------------------------0------------------------(0)-----|
|-------------------------6---------h7--------p6----------------------|
|---------------7----------------------------------------7------------|
|-0-------------------------------------------------------------------|

|---------------------------------------------------------------------|
|-------------------------0--------------------0----------------------|
|--------0---------------------------0------------------------(0)-----|
|-------------------------6---------h7--------p6----------------------|
|---------------7----------------------------------------7------------|
|-7-------------------------------------------------------------------|

|---------------------------------------------------------------------|
|-------------------------0--------------------0-------------(0)------|
|--------0---------------------------0--------------------------------|
|-------------------------6---------h7--------p6----------------------|
|---------------7----------------------------------------7------------|
|-5-------------------------------------------------------------------|

                Refrain

|---------------------------------------------------------|
|--------0-------0-----0------0-------0-----0-------0-----|
|-----0-------0--------------------------------0-------0--|
|--9-------9-------9-------7-------6----------------------|
|-------------------------------------------9-------7-----|
|---------------------------------------------------------|
    (Please don´t let me down this time)

|----------------------------------------------------------|
|---0-------0--------------0-------0-------0-------0-------|
|-----0-------0---------------0-------0-------0-------0----|
|---9---9---9---9---9--9---7-------6-----------------------|
|------------------------------------------9-------7-------|
|----------------------------------------------------------|
    (I´ve come a long way to just fold back into line.)

The part between the second refrain and the outro.


|------------------------------------------------------------|
|--0--------0--------0-------0----------0----------0---------|
|--------0--------0--------------0------------0-----------0--|
|-----0--------0---------0--------------6----h7---p6---------|
|--9--------9--------9-------7-------7-----------------0-----|
|------------------------------------------------------------|
            (Please hold me back)


|-----------------------------------------------------------------|
|--0----------0----------0-------0---------0-----0----0-----------|
|-----0----------0----------0--------0------------------------0---|
|------------------------------------------6-----7----6-----------|
|--9-----9----9-----9----9-------7------7-----------------0-------|
|-----------------------------------------------------------------|
    (If I tend to loose it and stear into old tracks)

Outro:
Play it with a small pause between the different parts.

                1st part:

|--7--------7-------7-----------------------0------------|
|--------0-------0-------10-----9-----7---------5--------|
|-----0-------0-------0------0-----0-----0---------0-----|
|--9----------------------------------9---------7-----7--|
|--------------------------------------------------------|
|--------------------------------------------------------|

|-9---------7----------------------------------0--------------0--------0-----|
|----5----------5-------9--------5----7-----------------7--------7--------7--|
|------------------0-------5-------------0-----------0-----------------------|
|--------7------7----7--------7-------9-----9----9--------9---------9--------|
|----------------------------------------------------------------------------|
|----------------------------------------------------------------------------|


                2nd part

|-7------7------7-----------------0------------------0------------0-----|
|------0------0-------9-------7------0---9---7----------------7------7--|
|----0------0-----0------0----------------------0----------0------------|
|-9-------------------7----7-----------------9-----9----9-------9-------|
|-----------------------------------------------------------------------|
|-----------------------------------------------------------------------|
                              (Please don´t let me down this time)


                3rd part

|-------------------------------------------------|
|--------0----------------0--------------------0--|
|------0---0------------0---0---------------5-----|
|----7-------0--------6-------0----------4--------|
|--0----------------------------------2-----------|
|------------------5---------------0--------------|
                (I´ve come a long way to just fold back into line)

Taking time
to walk down all the aisles.

Turning over every stone.
Building new rulers
but still haven't burnt any old.

Please don't let me down this time.
I've come a long way to just fold back into line.

Keep both feet on the ground
while I change the wings.

I promise one day I'll be coming around
from my cloud to see what it's all about.

But please don't let me down this time.
I've come a long way to just fold back into line.

Please hold me back
if I tend to lose it and steer into old tracks.

Please don't let me down this time.
I've come a long way to just fold back into line

------------------------------------------------------------------------------------------|
------------------------------------------------------------------------------------------|

Cycling Trivialities                             tabber: Evilpuppetmaste

Tuning: D A D A B e (Capo 2)

Played with triplets all the way through (as noted on 1st two bars)

The [1. [2. etc are alternate endings for the sections indicated.


Part 1 (repeats many times, the ghost notes on string 1 are mostly random)

   |--3--|  |--3--|  |--3--|  |--3--|     |--3--|  |--3--|  |--3--|  |--3-------|
|----------(0)---------------(0)------|-----------(0)---------------(0)---------|
|-----------0-----------------0--------|-----------0-----------------0----------|
|--------0--------0--------0--------0--|--------0--------0--------0--------0----|
|-----2--------2--------2--------2-----|-----2--------2--------4--------4-------|
|--------------------------------------|----------------------------------------|
|--2-----------------2-----------------|--2----------------/4-------------------|

|----------(0)---------------(0)-------|----------(0)---------------(0)-------|
|-----------2-----------------2--------|-----------2-----------------2p-0-----|
|--------0--------0--------0--------0--|--------0--------0--------0--------0--|
|-----0--------0--------0--------0-----|-----0--------0--------0--------------|
|--------------------------------------|--------------------------------------|
|--0-----------------0-----------------|--0-----------------0-----------------|


Part 2 ("Who cares in a 100 years ... who'll remember all the clowns")
|--------------------------------------|--------------------------------------|
|-----------0-----------------0--------|-----------0-----------------0--------|
|--------0--------0--------0--------0--|--------0--------0--------0--------0--|
|-----0--------0--------0--------0-----|-----0--------0--------0--------0-----|
|--5-----------------4-----------------|--2-----------------0-----------------|
|--------------------------------------|--------------------------------------|

                                         [1. 2. 3.
|--------------------------------------|--------------------------------------|
|-----------0-----------------0--------|-----------0-----------------0--------|
|--------0--------0--------0--------0--|--------0--------0--------0--------0--|
|-----6--------0--------6--------0-----|-----6--------0--------6--------0-----|
|--7-----------------7-----------------|--7-----------------7-----------------|
|--------------------------------------|--------------------------------------|

[4.
|----------------------------(0)-------|
|-----------0--------0--------0--------|
|--------0--------0-----------0--------|
|-----6--------6--------6h-7--7p-6p-0--|
|--7-----------------------------------|
|--------------------------------------|


Part 3-A  ("So how's it gonna be ...")
|-----------0-----------------0--------|-----------0-----------------0--------|
|-----------0-----------------0--------|-----------0-----------------0--------|
|--------0--------0--------0--------0--|--------0--------0--------0--------0--|
|-----2--------2--------2--------2-----|-----2--------2--------4--------4-----|
|--2-----------------2-----------------|--2----------------/4-----------------|
|--2-----------------2-----------------|--2----------------/4-----------------|
                                         [1.
|-----------0-----------------0--------|-----------0-----------------0--------|
|-----------2-----------------2--------|-----------2-----------------2p-0-----|
|--------0--------0--------0--------0--|--------0--------0--------0--------0--|
|-----0--------0--------0--------0-----|-----0--------0--------0--------------|
|--0-----------------0-----------------|--0-----------------0-----------------|
|--0-----------------0-----------------|--0-----------------0-----------------|

[2.
|-----------0-----0--------------------|
|-----------2-----2--------------------|
|--------0-----0-----------0--------0--|
|-----0-----------------0--------4-----|
|--0-----------------0--------4--------|
|--0-----------------0--------4--------|

Part 3-B  ("So where is this leaving me...")
|-----------0-----------------0--------|-----------0-----------------0--------|
|-----------0-----------------0--------|-----------0-----------------0--------|
|--------0--------0--------0--------0--|--------0--------0--------0--------0--|
|-----9--------9--------9--------9-----|-----9--------9--------9--------9-----|
|-/9-----------------9-----------------|--9-----------------9-----------------|
|-/9-----------------9-----------------|--9-----------------9-----------------|

|-----------0-----------------0--------|-----------0-----------------0--------|
|-----------0-----------------0--------|-----------0-----------------0--------|
|--------0--------0--------0--------0--|--------0--------0--------0--------0--|
|-----4--------4--------4--------4-----|-----4--------4--------6--------6-----|
|-\4-----------------4-----------------|--4-----------------------------------|
|-\4-----------------4-----------------|--4----------------/6-----------------|

|-----------0-----------------0--------|-----------0-----------------0--------|
|-----------0-----------------0--------|-----------0-----------------0--------|
|--------0--------0--------0--------0--|--------0--------0--------0--------0--|
|-----2--------2--------2--------2-----|-----2--------2--------4--------4-----|
|-\2-----------------2-----------------|--2----------------/4-----------------|
|-\2-----------------2-----------------|--2----------------/4-----------------|


Bridge - A (x2)
|-----------0-----------------0--------|-----------0-----------------0--------|
|-----------2-----------------0--------|-----------2-----------------2--------|
|--------0--------0--------0--------0--|--------0--------0--------0--------0--|
|-----0--------0--------0--------0-----|-----0--------0--------0--------0-----|
|--0-----------------0-----------------|--0-----------------0-----------------|
|--0-----------------0-----------------|--0-----------------0-----------------|


Bridge - B (x2)
|-----------0--------------------------|-----------------------------0--------|
|-----------0-----------------0--------|-----------0-----------------0--------|
|--------0--------0--------0--------0--|--------0--------0--------0--------0--|
|-----4--------4--------4--------4-----|-----4--------4--------4--------4-----|
|--------------------------------------|--------------------0-----------------|
|--4-----------4-----2-----------2-----|--4-----------2--4--------------------|

                                         [1.

|-----------0-----------------0--------|-----------0-----------------0--------|
|-----------0-----------------0--------|-----------0-----------------0--------|
|--------0--------0--------0--------0--|--------0--------0--------0--------0--|
|-----6--------6--------6--------6-----|-----6--------6--------6--------6-----|
|--7-----------------7-----------------|--7-----------------7-----------------|
|--6-----------------6-----------------|--6-----------------6-----------------|

[2.
|--------------------------------------|
|-----------------0--------0--------0--|
|--------0-----0--------0--------0-----|
|-----6-----6--------7--------9--------|
|--7-----------------------------------|
|--6-----------------------------------|

Middle 16
|-----------0-----------------0--------|-----------0-----------------0--------|
|--------0--------0--------0--------0--|--------0--------0--------0--------0--|
|-----0--------0--------0--------0-----|-----0--------0--------0--------0-----|
|-11-------11----------------11--------|----------11----------------11--------|
|--0-----------------0-----------------|--0-----------------0-----------0-----|
|--0-----------------0-----------------|--0-----------------0-----------------|

|-----------0-----------------0--------|-----------0-----------------0--------|
|--------0--------0--------0--------0--|--------0--------0--------0--------0--|
|-----0--------0--------0--------0-----|-----0--------0--------0--------0-----|
|----------11----------------11--------|----------11----------------11--------|
|--9-----------------9-----------------|--9-----------------9-----------------|
|--9-----------------9-----------------|--9-----------------9-----------------|


Outro - A
|-----------0-----------------0--------|-----------0-----------------0--------|
|--------0--------0--------0--------0--|--------0--------0--------0--------0--|
|-----0--------0--------0--------0-----|-----0--------0--------0--------------|
|----------11--------9--------7--------|--6--------7--------6--------4p-0-----|
|--0-----------------------------------|--------------------------------------|
|--0-----------------------------------|--------------------------------------|

|-----------0-----------------0--------|-----------0-----------------0--------|
|--------0--------0--------0--------0--|--------0--------0--------0--------0--|
|-----0--------0--------0--------0-----|-----0--------0--------0--------0-----|
|-----------2-----------------0--------|--------------------------------------|
|--------------------------------------|-----------4-----------------2--------|
|--2-----------------2-----------------|--2-----------------2-----------------|

Outro - B (repeat until fade)
|-----------2-----------------0--------|-----------0-----------------0--------|
|--------0--------0--------0--------0--|--------2--------2--------2--0-----0--|
|-----0--------0--------0--------0-----|-----0--------0--------0--------0-----|
|-----------2-----------------2--------|-----------2-----------------2--------|
|--------------------------------------|--------------------------------------|
|--2-----------------2-----------------|--2-----------------2-----------------|

Too blind to know your best.
Hurrying through the forks without regrets.
Different now, every step feels like a mile.
All the lights seem to flash and pass you by.

So how's it gonna be.
When it all comes down you're cycling trivialities.

Don't know which way to turn.
Every trifle becoming big concerns.
All this time you were chasing dreams,
without knowing what you wanted them to mean.

So how's it gonna be.
When it all comes down you're cycling trivialities.
So how's it gonna be.
When it all comes down you're cycling trivialities.

Who cares in a hundred years from now.
All the small steps, all your shitty clouds.
Who cares in a hundred years from now.
Who'll remember all the players.
Who'll remember all the clowns.

So how's it gonna be.
When it all comes down you're cycling trivialities.

So what does this really mean.
When it all comes down you're cycling trivialities.
Cycling trivialities.
Cycling trivialities


-------------------------------------------------------------------------------------------------

Thanks goes towards all the tabbers who created these incredible helpful and accurate 
so that we could enjoy jose's great music.
Also thanks to Jose for writing such great music.
comments
We did not receive enough feedback on this tab! Please rate:
print report bad tab
1 2 3 4 5
I want to post or [tab]
guest
You may want to rate the tab now too:
select rating
Please do not post tabs as comments. Select "correction" instead!