Oops, an error
Loading. Please wait.

Lua Flora Tab

114 views 3 this week
no commentswrite comment
1 2 3 4 5
please rate
add to favorites launch autoscroll
font size
0
reset
Autoscroll
+/-
esc
set tempo
stop
Contributor
Difficulty
intermediate
WARNING: You are trying to view
                                    content from Ultimate-Guitar.com
                                    in an unauthorized application,
                                    which is prohibited.

                                    Please use an official Ultimate
                                    Guitar Tabs application for iPhone,
                                    iPad or Android to access legitimate
                                    chords, guitar, bass, and drum tabs
                                    from Ultimate-Guitar.com database.

                                    Type "ultimate guitar tabs" in Apple
                                    App Store's or Android Market's
                                    search to find the application.
Lua Flora - Jose Neto, http://www.joseneto.com/
from Mountains And The Sea De Novo
tabbed by Almir Nametak, March 2011
mokra@starmo.co.uk


drop E to D please


E--------------------------------8/10-10-10-10-10-8-8-6-6-------------------------------3----------|
B------8/10-10-10-10-10-8-8-6-6--------------8----8---6---8/10-10-10-10-10-8-8-6-6-3-5-6-6-5-5-3---|
G------------------7----9---7----------------9----9---7--------------10----9---7---3-5-5-5---4-4---|
D------------------7---10---8----------------0----0---0----------------------------3-5-5-5-----5---|
A----------------------10---8----------------------------------------8-----7---5---1---0-3---5-5---|
D------------------7-------------------------------------------------------------------------------|


E--------------------------------------------------------------------------------------------------|
B--------------------------------------------------------------------------------------------------|
G--------------------------------------------------------------------------------------------------|
D--------------------------------------------------------------------------------------------------|
A------10-10-8-10-8-7-0-7/8/7/5/7-0-5/7/5/3-5-3-5-3-0---x2-----------------------------------------|
D------10-10-8-10-8-7-0-7/8/7/5/7-0-5/7/5/3-5-3-5-3-0----------------------------------------------|


E--------------------------------------------------------------------------------------------------|
B-----------------------------------------------3-3------------------------------------------------|
G------3---0-3-0-3-0-3-3---0-3---0-3-0-3-0-3-3--3-3---0-3-0-3-0-3-3---0-3---0-3-0-3-0-3------------|
D------3-2-0-3-2-3-2-3-3-2-0-3-2-0-3-2-3-2-3-3--3-3-2-0-3-2-3-2-3-3-2-0-3-2-0-3-2-3-2-3------------|
A--------------------------------------------------------------------------------------------------|
D-----------------------------------------------0-0------------------------------------------------|


E-----------------------------0-1-3-1-0--------3-----------3---------------------------------------|
B-------3-3-3-3-3-3-3-3-3-3-3---1---1---5-3-3-3-3--3-7--3-3-3-3-7--3-------------------------------|
G-------------0---0---0-----3---2-------4---------0----0-----0----0--------------------------------|
D-------------3---2---0----------------------------------------------------------------------------|
A---------------------------1---0---3---5----------------------------------------------------------|
D-------------3---2---0--------------------------3----5-----3----5---------------------------------|


E-----------------------------0-1-3-1-0--------3/5/3/1/3-----------3-------------------------------|
B-------3-3-3-3-3-3-3-3-3-3-3---1---1---5-3-3-3---------3--3-7--3-3-3-3-7--3-----------------------|
G-------------0---0---0-----3---2-------4-----------------0----0-----0----0------------------------|
D-------------3---2---0----------------------------------------------------------------------------|
A---------------------------1---0---3---5----------------------------------------------------------|
D-------------3---2---0----------------------------------3----5-----3----5-------------------------|


E-------3/5-5-5-5-5-3-3-1-1--0-1-3-1-0--------3-----------3----------------------------------------|
B---------------3---1------3---1---1---5-3-3-3-3--3-7--3-3-3-3-7--3--------------------------------|
G-----------------------3--3---2-------4---------0----0-----0----0---------------------------------|
D---------------3---2---0--------------------------------------------------------------------------|
A--------------------------1---0---3---5-----------------------------------------------------------|
D-----------------------------------------------3----5-----3----5----------------------------------|


E-------3/5-5-5-5-5-3-3-1-1--0-1-3-1-0--------3/5/3/1/3-----------3--------------------------------|
B---------------3---1------3---1---1---5-3-3-3---------3--3-7--3-3-3-3-7--3------------------------|
G-----------------------3--3---2-------4-----------------0----0-----0----0-------------------------|
D---------------3---2---0--------------------------------------------------------------------------|
A--------------------------1---0---3---5-----------------------------------------------------------|
D-------------------------------------------------------3----5-----3----5--------------------------|


E--------------------------------------------------------------------------------------------------|
B-----------------------------------------------3-3------------------------------------------------|
G------3---0-3-0-3-0-3-3---0-3---0-3-0-3-0-3-3--3-3---0-3-0-3-0-3-3---0-3---0-3-0-3-0-3------------|
D------3-2-0-3-2-3-2-3-3-2-0-3-2-0-3-2-3-2-3-3--3-3-2-0-3-2-3-2-3-3-2-0-3-2-0-3-2-3-2-3------------|
A--------------------------------------------------------------------------------------------------|
D-----------------------------------------------0-0------------------------------------------------|


E-----------------------------0-1-3-1-0--------3-----------3---------------------------------------|
B-------3-3-3-3-3-3-3-3-3-3-3---1---1---5-3-3-3-3--3-7--3-3-3-3-7--3-------------------------------|
G-------------0---0---0-----3---2-------4---------0----0-----0----0--------------------------------|
D-------------3---2---0----------------------------------------------------------------------------|
A---------------------------1---0---3---5----------------------------------------------------------|
D-------------3---2---0--------------------------3----5-----3----5---------------------------------|


E-----------------------------0-1-3-1-0--------3/5/3/1/3-----------3-------------------------------|
B-------3-3-3-3-3-3-3-3-3-3-3---1---1---5-3-3-3---------3--3-7--3-3-3-3-7--3-----------------------|
G-------------0---0---0-----3---2-------4-----------------0----0-----0----0------------------------|
D-------------3---2---0----------------------------------------------------------------------------|
A---------------------------1---0---3---5----------------------------------------------------------|
D-------------3---2---0----------------------------------3----5-----3----5-------------------------|


E-------3/5-5-5-5-5-3-3-1-1--0-1-3-1-0--------3/5/3/1/3-----------3--------------------------------|
B---------------3---1------3---1---1---5-3-3-3---------3--3-7--3-3-3-3-7--3------------------------|
G-----------------------3--3---2-------4-----------------0----0-----0----0-------------------------|
D---------------3---2---0--------------------------------------------------------------------------|
A--------------------------1---0---3---5-----------------------------------------------------------|
D-------------------------------------------------------3----5-----3----5--------------------------|


E-------3/5-5-5-5-5-3-3-1-1--0-1-3-1-0--------3/5/3/1/3-----------3--------------------------------|
B---------------3---1------3---1---1---5-3-3-3---------3--3-7--3-3-3-3-7--3------------------------|
G-----------------------3--3---2-------4-----------------0----0-----0----0-------------------------|
D---------------3---2---0--------------------------------------------------------------------------|
A--------------------------1---0---3---5-----------------------------------------------------------|
D-------------------------------------------------------3----5-----3----5--------------------------|


E--------------------------------------------------------------------------------------------------|
B------------10--10------10--10-----10--10------10--10---------------------------------------------|
G------------7---7-------7---7------7---7-------7---7----------------------------------------------|
D--------7--7---7-7--7--7---7-7-7--7---7-7--7--7---7-7---------------------------------------------|
A---------10--10------10--10-----10--10------10--10------------------------------------------------|
D-------0-----------0----------0-----------0-------------------------------------------------------|


E-------5-5--5---------------2-2--2-5-2---1-1-0-1---5---5------------------------------------------|
B-------6--8-6--6-8-8-6-8----3--5-3-----3-3--3--3-3-6-8-6--6-10-10-8-10-10-------------------------|
G-------7----7----7---7-7--7-2----2-------0-----0---7---7----9-----9---9---------------------------|
D--------------0----------0-------------------------------0----------------------------------------|
A----------------------------2----2-0-0-0----------------------------------------------------------|
D-------0----0----5-----5-----------------3-----3--0----0----7--------7----------------------------|


E-----------------------------0-1-3-1-0------------------------------------------------------------|
B-------3-3-3-3-3-3-3-3-3-3-3---1---1---5-3-3------------------------------------------------------|
G-------------0---0---0-----3---2-------4----------------------------------------------------------|
D-------------3---2---0----------------------------------------------------------------------------|
A---------------------------1---0---3---5----------------------------------------------------------|
D-------------3---2---0----------------------------------------------------------------------------|


E--------------------------------------------------------------------------------------------------|
B-----------------------------------------------3-3------------------------------------------------|
G------3---0-3-0-3-0-3-3---0-3---0-3-0-3-0-3-3--3-3---0-3-0-3-0-3-3---0-3---0-3-0-3-0-3------------|
D------3-2-0-3-2-3-2-3-3-2-0-3-2-0-3-2-3-2-3-3--3-3-2-0-3-2-3-2-3-3-2-0-3-2-0-3-2-3-2-3------------|
A--------------------------------------------------------------------------------------------------|
D-----------------------------------------------0-0------------------------------------------------|


E-----------------------------0-1-3-1-0--------3-----------3---------------------------------------|
B-------3-3-3-3-3-3-3-3-3-3-3---1---1---5-3-3-3-3--3-7--3-3-3-3-7--3-------------------------------|
G-------------0---0---0-----3---2-------4---------0----0-----0----0--------------------------------|
D-------------3---2---0----------------------------------------------------------------------------|
A---------------------------1---0---3---5----------------------------------------------------------|
D-------------3---2---0--------------------------3----5-----3----5---------------------------------|


E-----------------------------0-1-3-1-0--------3/5/3/1/3-----------3-------------------------------|
B-------3-3-3-3-3-3-3-3-3-3-3---1---1---5-3-3-3---------3--3-7--3-3-3-3-7--3-----------------------|
G-------------0---0---0-----3---2-------4-----------------0----0-----0----0------------------------|
D-------------3---2---0----------------------------------------------------------------------------|
A---------------------------1---0---3---5----------------------------------------------------------|
D-------------3---2---0----------------------------------3----5-----3----5-------------------------|


E-------3/5-5-5-5-5-3-3-1-1--0-1-3-1-0--------3-----------3----------------------------------------|
B---------------3---1------3---1---1---5-3-3-3-3--3-7--3-3-3-3-7--3--------------------------------|
G-----------------------3--3---2-------4---------0----0-----0----0---------------------------------|
D---------------3---2---0--------------------------------------------------------------------------|
A--------------------------1---0---3---5-----------------------------------------------------------|
D-----------------------------------------------3----5-----3----5----------------------------------|


E-------3/5-5-5-5-5-3-3-1-1--0-1-3-1-0--------3/5/3/1/3-----------3--------------------------------|
B---------------3---1------3---1---1---5-3-3-3---------3--3-7--3-3-3-3-7--3------------------------|
G-----------------------3--3---2-------4-----------------0----0-----0----0-------------------------|
D---------------3---2---0--------------------------------------------------------------------------|
A--------------------------1---0---3---5-----------------------------------------------------------|
D-------------------------------------------------------3----5-----3----5--------------------------|


E--------------------------------------------------------------------------------------------------|
B------------10--10------10--10-----10--10------10--10---------------------------------------------|
G------------7---7-------7---7------7---7-------7---7----------------------------------------------|
D--------7--7---7-7--7--7---7-7-7--7---7-7--7--7---7-7---------------------------------------------|
A---------10--10------10--10-----10--10------10--10------------------------------------------------|
D-------0-----------0----------0-----------0-------------------------------------------------------|


E-------5-5--5---------------2-2--2-5-2---1-1-0-1---5---5------------------------------------------|
B-------6--8-6--6-8-8-6-8----3--5-3-----3-3--3--3-3-6-8-6--6-10-10-8-10-10-------------------------|
G-------7----7----7---7-7--7-2----2-------0-----0---7---7----9-----9---9---------------------------|
D--------------0----------0-------------------------------0----------------------------------------|
A----------------------------2----2-0-0-0----------------------------------------------------------|
D-------0----0----5-----5-----------------3-----3--0----0----7--------7----------------------------|


E-----------------------------0-1-3-1-0------------------------------------------------------------|
B-------3-3-3-3-3-3-3-3-3-3-3---1---1---5-3-3-3-3--------------------------------------------------|
G-------------0---0---0-----3---2-------4---4-4-4--------------------------------------------------|
D-------------3---2---0---------------------0-0-0--------------------------------------------------|
A---------------------------1---0---3---5---5-5-5--------------------------------------------------|
D-------------3---2---0---------------------0-0-0--------------------------------------------------|


E--------------------------------------------------------------------------------------------------|
B------------------------------6-6-----------------------------------------------------------------|
G------------------------------7-7------------------------5-5--------------------------------------|
D------------------------------7-7------------------------5-5--------------------------------------|
A-----------------5-------2----5-5-----------5-------2----3-3--------------------------------------|
D----12/0-2-3-2-0---0-2-3---0-2----0-2-3-2-0---0-2-3---0-2-------x4--------------------------------|


E--------------------------------------------------------------------------------------------------|
B--------------------------------------------------------------------------------------------------|
G--------------------------------------------------------------------------------------------------|
D--------------------------------------------------------------------------------------------------|
A------10-10-8-10-8-7-0-7/8/7/5/7-0-5/7/5/3-5-3-5-3-0---x2-----------------------------------------|
D------10-10-8-10-8-7-0-7/8/7/5/7-0-5/7/5/3-5-3-5-3-0----------------------------------------------|


E5-5--5--------------2-2--2-5-2---1-1-0-1---5---5-------------------------------------0-1-3-1-0----|
B6--8-6--6-8-8-6-8---3--5-3-----3-3--3--3-3-6-8-6--6-10-10-8-10-10-3-3-3-3-3-3-3-3-3-3--1---1---5-3|
G7----7----7---7-7-7-2----2-------0-----0---7---7----9-----9---9---------0---0---0---3--2-------4--|
D-------0---------0-------------------------------0----------------------3---2---0-----------------|
A--------------------2----2-0-0-0----------------------------------------------------1--0---3---5--|
D0----0----5-----5----------------3-----3--0----0----7--------7----------3---2---0-----------------|


E5-5--5--------------2-2--2-5-2---1-1-0-1---5---5-------------------------------------0-1-3-1-0----|
B6--8-6--6-8-8-6-8---3--5-3-----3-3--3--3-3-6-8-6--6-10-10-8-10-10-3-3-3-3-3-3-3-3-3-3--1---1---5-3|
G7----7----7---7-7-7-2----2-------0-----0---7---7----9-----9---9---------0---0---0---3--2-------4--|
D-------0---------0-------------------------------0----------------------3---2---0-----------------|
A--------------------2----2-0-0-0----------------------------------------------------1--0---3---5--|
D0----0----5-----5----------------3-----3--0----0----7--------7----------3---2---0-----------------|



E----------------------0-1-3-1-0------------------------0-1-3-1-0----------------------------------|
B---3-3-3-3-3-3-3-3-3-3--1---1---5-3-3-3-3-3-3-3-3-3-3-3--1---1---5-3------------------------------|
G---------0---0---0---3--2-------4---------0---0---0---3--2-------4--------------------------------|
D---------3---2---0------------------------3---2---0-----------------------------------------------|
A---------------------1--0---3---5---------------------1--0---3---5--------------------------------|
D---------3---2---0------------------------3---2---0-----------------------------------------------|


E--------------------------------------------------------------------------------------------------|
B--------------------------------------------------------------------------------------------------|
G--------------------------------------------------------------------------------------------------|
D--------------------------------------------------------------------------------------------------|
A------10-10-8-10-8-7-0-7/8/7/5/7-0-5/7/5/3-5-3-5-3-0---x2-----------------------------------------|
D------10-10-8-10-8-7-0-7/8/7/5/7-0-5/7/5/3-5-3-5-3-0----------------------------------------------|


---------------------------------------------------------------------------------------------------|
B------------------------------------3-------------------------------------------------------------|
G------------------------------------2-------------------------------------------------------------|
D------------------------------------0-------------------------------------------------------------|
A------10-10-8-10-8-7-7-7-7-5-5-5-3----------------------------------------------------------------|
D------10-10-8-10-8-7-7-7-7-5-5-5-3--0-------------------------------------------------------------|
comments
We did not receive enough feedback on this tab! Please rate:
1 2 3 4 5
I want to post or [tab]
guest
You may want to rate the tab now too:
select rating
Please do not post tabs as comments. Select "correction" instead!