Oops, an error
Loading. Please wait.

Unico Olhar Bass Tab

27 views 1 this week
no commentswrite comment
1 2 3 4 5
please rate
add to favorites launch autoscroll
font size
0
reset
Autoscroll
+/-
esc
set tempo
stop
Contributor
Difficulty
intermediate
WARNING: You are trying to view
                                    content from Ultimate-Guitar.com
                                    in an unauthorized application,
                                    which is prohibited.

                                    Please use an official Ultimate
                                    Guitar Tabs application for iPhone,
                                    iPad or Android to access legitimate
                                    chords, guitar, bass, and drum tabs
                                    from Ultimate-Guitar.com database.

                                    Type "ultimate guitar tabs" in Apple
                                    App Store's or Android Market's
                                    search to find the application.
--------------------------------------------------------------------------
                    ÚNICO OLHAR - Jota Quest
--------------------------------------------------------------------------
Tabbed by: polaco_mp3z
E-mail: polacomp3z@gmail.com

Tuning: Standard (EADG)


     0:30                                                        
     Q    E   E   E   E   E   E     Q    E   E   E   E   E   E   
G||------------------------------|------------------------------|
D||----------12--14--14--12------|----------12--14--14---L\--L--|
A||--------------------------14--|------------------------------|
E||--0----L----------------------|--0----L----------------------|


  Q    E  S S E  E  E  E      Q    E  S  S  E   Q    E   
--------------------------|--------------------11----L--|
--------------------------|-----------------------------|
--3----L------------------|-----------------------------|
------------x-3--5--------|--10----L-----x-10-----------|


  Q    E   E   E   E   E   E     Q    E   E   E   E   E   E   
------------------------------|------------------------------|
----------12--14--14--12------|----------12--14--14---L\--L--|
--------------------------14--|------------------------------|
--0----L----------------------|--0----L----------------------|


  Q    E  S S E  E  E  E      Q    E   S   S   E   E  E  E   
--------------------------|-----------11S-12S-11------------|
--------------------------|---------------------------------|
--3----L------------------|---------------------------------|
------------x-3--5--------|--10----L--------------10--------|


  Q    E   E   E   E   E   E     Q    E   S   S   E  E  Q     
------------------------------|----------13S-14S-13--L--L----|
----------12--14--14--12------|------------------------------|
--------------------------14--|------------------------------|
--0----L----------------------|--0----L----------------------|


  Q    E  S S E  E  Q       Q    E  S S E  E  Q       Q    E  S S E  E  Q     
-------------------------|-------------------------|-------------------------|
-------------------------|-------------------------|--------------------9----|
--3---------x-3--3--L----|--3----L----x-3--3--L----|-------------------------|
-------------------------|-------------------------|--7----L----x-7--7--L----|


  Q    E  S S E  E  Q       Q    E  S S  S S  E  E   E   
-------------------------|------------x-16---16--L--14--|
--L----9--L---------9----|------------------------------|
-------------------------|--0----L----------------------|
--7----L----7-7--7--L----|------------------------------|


  E   S   S   E  E  H           Q    E  S S E  E  E  E   
--L--14S-16S-14--L--L--------|--------------------------|
-----------------------------|--------------------------|
-----------------------------|--3---------x-3--3--L-----|
-----------------------------|-----------------------3--|


  Q    E  S S E  E  E  E     Q    E  S S E  E  Q       Q    E  S S E  E  Q     
--------------------------|-------------------------|-------------------------|
--------------------------|--------------------9----|--L----9--L---------9----|
--3---------x-3--3--L-----|-------------------------|-------------------------|
-----------------------5--|--7----L----x-7--7--L----|--7----L----7-7--7--L----|


  Q    E  S S  S S  E  E   E     Q    E  S S E  E  Q     
------------x-16---16--L--14--|-------L-----------------|
------------------------------|-------------------------|
--0----L----------------------|--0----L----x-0--0--L----|
------------------------------|-------------------------|


  Q    E  S S E  E  E  E       Q     Q     Q     Q     
---------------------------|--------------------------|
---------------------------|--------------------------|
-----------------------0s--|--14----14----14----14----|
--7----L----x-7--7--L------|--------------------------|


  1:24                                                        
  Q    E   E   E   E   E   E     Q    E   E   E   E   E   E   
------------------------------|------------------------------|
----------12--14--14--12------|----------12--14--14---L\--L--|
--------------------------14--|------------------------------|
--0----L----------------------|--0----L----------------------|


  Q    E  S S E  E  E  E      Q    E  S  S  E   Q    E   
--------------------------|--------------------11----L--|
--------------------------|-----------------------------|
--3----L------------------|-----------------------------|
------------x-3--5--------|--10----L-----x-10-----------|


  Q    E   E   E   E   E   E     Q    E   E   E   E   E   E   
------------------------------|------------------------------|
----------12--14--14--12------|----------12--14--14---L\--L--|
--------------------------14--|------------------------------|
--0----L----------------------|--0----L----------------------|


  Q    E  S S E  E  E  E      Q    E   S   S   E   E  E  E   
--------------------------|-----------11S-12S-11------------|
--------------------------|---------------------------------|
--3----L------------------|---------------------------------|
------------x-3--5--------|--10----L--------------10--------|


                                         /1\            
  Q    E   E   E   E   E   E     Q    E  Q    E  E  E   
------------------------------|------------------------|
----------12--14--14--12------|------------------------|
--------------------------14--|----------7-------------|
--0----L----------------------|--0----L-------0--------|


  Q    E  S S E  E  E  E      Q    E  S  S  E   Q    E   
--------------------------|--------------------11----L--|
--------------------------|-----------------------------|
--3----L------------------|-----------------------------|
------------x-3--5--------|--10----L-----x-10-----------|


  Q    E   E   E   E   E   E     Q    E   E   E   E   E   E   
------------------------------|------------------------------|
----------12--14--14--12------|----------12--14--14---L\--L--|
--------------------------14--|------------------------------|
--0----L----------------------|--0----L----------------------|


  Q    E  S S E  E  E  E     E  E  E  E  E  E  E  E   
--------------------------|--------------------------|
--------------------------|--------------------------|
--3----L------------------|--5--------------------5--|
------------x-3--5--------|--------2--3--5--3--5-----|


  Q    E   E   E   E   E   E     Q    E   S   S   E  E  Q     
------------------------------|----------13S-14S-13--L--L----|
----------12--14--14--12------|------------------------------|
--------------------------14--|------------------------------|
--0----L----------------------|--0----L----------------------|


  2:13                                                                         
  Q    E  S S E  E  E.  S    Q    E  S S E  E  Q       Q    E  S S E  E  Q     
--------------------------|-------------------------|-------------------------|
--------------------------|-------------------------|--------------------9----|
--3----L------3--3--L-----|--3----L----x-3--3--L----|-------------------------|
------------3-----------3-|-------------------------|--7----L----x-7--7--L----|


  Q    E  S S E  E  Q       Q    E  S S  S S  E  E   E   
-------------------------|------------x-16---16--L--14--|
--L----9--L---------9----|------------------------------|
-------------------------|--0----L----------------------|
--7----L----7-7--7--L----|------------------------------|


  Q    E  S S E  E  Q       Q    E  S S E  E  Q       Q    E  E  E  E  Q     
-------L-----------------|-------------------------|-------5--5-------------|
-------------------------|-------------------------|------------------------|
--0----L----x-0--0--L----|--3----L------3--3--L----|--3----------3--3--L----|
-------------------------|------------3------------|------------------------|


  Q    E  S S E  E  Q       Q    E  S S E  E  Q     
-------------------------|-------------------------|
--------------------9----|--L----9--L---------9----|
-------------------------|-------------------------|
--7----L----x-7--7--L----|--7----L----7-7--7--L----|


  Q    E  S S  S S  E  E   E     E  E  E  E  E  E  E  E   
------------x-16---16--L--14--|--L-----------------------|
------------------------------|--------------------------|
--0----L----------------------|--------------------------|
------------------------------|-----5--5--5--5--5--5--5--|


  Q    E  S S E  E  Q       Q    Q    Q    Q       W                 
-------------------------|----------------------|-------------------|
-------------------------|--9----9----9----9----|-------------------|
-------------------------|----------------------|-------------------|
--7----L----x-7--7--L----|----------------------|--0----------------|


  H         S   E.   Q       W                    W                 
-----------14h-16---19----|--L----------------|--14----------------|
--------------------------|-------------------|--------------------|
--------------------------|-------------------|--------------------|
--0-----------------------|-------------------|--------------------|


  H         S   S   S S Q       H         S   E.   Q       W                 
-----------14h-16p-14-L-L----|-----------14h-16---19----|--L----------------|
-----------------------------|--------------------------|-------------------|
-----------------------------|--------------------------|-------------------|
--0--------------------------|--0-----------------------|-------------------|


                      3:08                                                  
  W                   E    E  E  E  E  E  E  E     E  E  E  E  E  E  E  E   
-------------------|----------------------------|--------------------------|
-------------------|----------------------------|--------------------------|
-------------------|--7-------------------------|--7-----------------------|
-------------------|-------0--5--7--8--7--5--0--|-----0--5--7--8--7--5--0--|


  E  E  E  E  E  E  E  E     E  E  E  E  E  E  E  E   
--------------------------|--------------------------|
--------------------------|--------------------------|
--3--------0--2--3--2--5--|--L-----0--5--L-----5-----|
-----0--3-----------------|-----3-----------5-----0--|


  E  E  E  E  E  E  E  E     E  E  E  E  E  E  E  E   
--------------------------|--------------------------|
--------------------------|--------------------------|
--7-----------------------|--7-----------------------|
-----0--5--7--8--7--5--0--|-----0--5--7--8--7--5--0--|


  E  E  E  E  E  E  E  E     E  E  E  E  E  E  E  E   
--------------------------|--------------------------|
--------------------------|--------------------------|
--3--------0--2--3--2--5--|--L--2--3--5--L--2--3-----|
-----0--3-----------------|-----------------------0--|


  E  E  E  E  E  E  E  E     E  E  E  E  E  E  E  E   
--------------------------|--------------------------|
--------------------------|--------------------------|
--7-----7-----7-----7-----|--7-----7-----7-----7-----|
-----0-----0-----0-----0--|-----0-----0-----0-----0--|


  E  E  E  E  E  E  E  E     E  E  E  E  E  E  E  E    
--------------------------|---------------------------|
--------------------------|---------------------------|
--3--3--3--3--3--3--3--3--|--5--3--2--5--3--2--5--2s--|
--------------------------|---------------------------|


  E  E  E  E  E  E  E  E      E  E   E  E   E  E   E  E   
--------------------------|------------------------------|
--------------------------|------------------------------|
--7-----7-----7-----7-----|--19-----19-----19-----19-----|
-----0-----0-----0-----0--|------0------0------0------0--|


  E  E  E  E  E  E  E  E     E  E  E  E  E  E  E  E     W                  
--------------------------|--------------------------|-------------------||
--------------------------|--------------------------|-------------------||
--3--3--3--3--3--3--3--3--|--5--3--2--5--3--2--5--2--|-------------------||
--------------------------|--------------------------|--0----------------||




Duration Legend
---------------
W - whole
H - half
Q - quarter
E - 8th
S - 16th
T - 32nd
X - 64th
. - note dotted
|-n-|  - n-tuplets


Tablature Legend
----------------
L - tied note
x - dead note
g - grace note
(n) - ghost note
h - hammer on
p - pull off
S - shift slide
s - legato slide
/ -  slide into from below or out of upwards
\ -  slide into from above or out of downwards
~ - vibrato
W - wide vibrato
comments
We did not receive enough feedback on this tab! Please rate:
print report bad tab
1 2 3 4 5
I want to post or [tab]
guest
You may want to rate the tab now too:
select rating
Please do not post tabs as comments. Select "correction" instead!