Oops, an error
Loading. Please wait.

Dead Souls Bass Tab

ver1
ver1

Whole song

Interactive

More versions @911Tabs.com
10,970 views 9 this week
1 commentread comment
1 2 3 4 5
accurate
x 2
Autoscroll
+/-
esc
set tempo
stop
Contributor
Hey! There's an official Ultimate Guitar app which is ideal
for learning songs when you're away from computer. Get the app
WARNING: You are trying to view
                                    content from Ultimate-Guitar.com
                                    in an unauthorized application,
                                    which is prohibited.

                                    Please use an official Ultimate
                                    Guitar Tabs application for iPhone,
                                    iPad or Android to access legitimate
                                    chords, guitar, bass, and drum tabs
                                    from Ultimate-Guitar.com database.

                                    Type "ultimate guitar tabs" in Apple
                                    App Store's or Android Market's
                                    search to find the application.
-----------------------------------------------------------------------------
			  Joy Division - Dead Souls
-----------------------------------------------------------------------------

Tabbed By : Extra Blood
e-mail: Lenda@ofir.dk

Tuning: F A# D# G#

Just tune every string a tone up, or play it all one fret down.

Personally, I think it sounds better when tuned up.

If you're playing it along a live version, you don't need to tune up.


      E  E  E  E  E  E  E  E     E  E  E  E  E  E  E  E   
G#||--------------------------|--------------------------|
D#||--------------------7-----|--------------------------|
A#||--9--9--9--9--9--9-----9--|--L--7--7--7--7--7--7-----|
F ||--------------------------|-----------------------0--|


  E  E  E  E  E  E  E  E     E  E  E  E  E  E  E  E   
--------------------------|--------------------------|
--------------------7--9--|--L-----------------------|
--9--9--9--9--9--9--------|-----7--7--7--7--7--7-----|
--------------------------|-----------------------0--|


  E  E  E  E  E  E  E  E     E  E  E  E  E  E  E  E   
--------------------------|--------------------------|
--------------------7-----|--------------------------|
--9--9--9--9--9--9-----9--|--L--7--7--7--7--7--7-----|
--------------------------|-----------------------0--|


  E  E  E  E  E  E  E  E     E  E  E  E  E  E  E  E   
--------------------------|--------------------------|
--------------------7--9--|--L-----------------------|
--9--9--9--9--9--9--------|-----7--7--7--7--7--7-----|
--------------------------|-----------------------0--|


  E  E  E  E  E  E  E  E     E  E  E  E  E  E  E  E   
--------------------------|--------------------------|
--------------------7--9--|--L-----------------------|
--9--9--9--9--9--9--------|-----7--7--7--7--7--7-----|
--------------------------|-----------------------0--|


  E  E  E  E  E  E  E  E     E  E  E  E  E  E  E  E   
--------------------------|--------------------------|
--------------------7-----|--------------------------|
--9--9--9--9--9--9-----9--|--L--7--7--7--7--7--7-----|
--------------------------|-----------------------0--|


  E  E  E  E  E  E  E  E     E  E  E  E  E  E  E  E   
--------------------------|--------------------------|
--------------------7--9--|--L-----------------------|
--9--9--9--9--9--9--------|-----7--7--7--7--7--7-----|
--------------------------|-----------------------0--|


  E  E  E  E  E  E  E  E     E  E  E  E  E  E  E  E   
--------------------------|--------------------------|
--------------------7-----|--------------------------|
--9--9--9--9--9--9-----9--|--L--7--7--7--7--7--7-----|
--------------------------|-----------------------0--|


  E  E  E  E  E  E  E  E     E  E  E  E  E  E  E  E   
--------------------------|--------------------------|
--------------------7--9--|--L-----------------------|
--9--9--9--9--9--9--------|-----7--7--7--7--7--7-----|
--------------------------|-----------------------0--|


  E  E  E  E  E  E  E  E     E  E  E  E  E  E  E  E   
--------------------------|--------------------------|
--------------------7--9--|--L-----------------------|
--9--9--9--9--9--9--------|-----7--7--7--7--7--7-----|
--------------------------|-----------------------0--|


  E  E  E  E  E  E  E  E     E  E  E  E  E  E  E  E   
--------------------------|--------------------------|
--------------------7-----|--------------------------|
--9--9--9--9--9--9-----9--|--L--7--7--7--7--7--7-----|
--------------------------|-----------------------0--|


  E  E  E  E  E  E  E  E      E   E  E  E  E  E  E  S S  
--------------------------|-------------------------9-9-|
--------------------7-----|-----------------------------|
--9--9--9--9--9--9-----9--|--(9)--7--7--7--7--7--7------|
--------------------------|-----------------------------|


  E  E  E  S S E  S S E  S S    E  E  E  E  E  E  E  S S  
--9--9--9--7-7-7--7-7-7------|-------------------------9-|
-------------------------9-9-|--9--9--9--7--L------------|
-----------------------------|-----------------9--7--L---|
-----------------------------|---------------------------|


  E  E  E  S S E  E  E  S S    E  E  E  E  E  E  Q     
--9--9--9--7-7-7--7--7------|-------------------------|
------------------------9-9-|--9--9--9--7--L----------|
----------------------------|-----------------9--7----|
----------------------------|-------------------------|


  S S S S E  S S E  E  E  S S    E  E  E  E  E  E  Q     
--9-9-9-9-9--7-7-7--7--7------|-------------------------|
--------------------------9-9-|--9--9--9--7--L----------|
------------------------------|-----------------9--7----|
------------------------------|-------------------------|


  S S E  E  S S E  E  E  S S    E  E  E  E  S S E  Q      
--9-9-9--9--7-7-7--7--7------|---------------------------|
-------------------------9-9-|--9--9--7--7--5-5-5--4/----|
-----------------------------|---------------------------|
-----------------------------|---------------------------|


  E  E  E  E  E  E  E  E     E  E  E  E  E  E  E  E   
--------------------------|--------------------------|
--------------------7-----|--------------------------|
--9--9--9--9--9--9-----9--|--L--7--7--7--7--7--7-----|
--------------------------|-----------------------0--|


  E  E  E  E  E  E  E  E     E  E  E  E  E  E  E  E   
--------------------------|--------------------------|
--------------------7--9--|--L-----------------------|
--9--9--9--9--9--9--------|-----7--7--7--7--7--7-----|
--------------------------|-----------------------0--|


  E  E  E  E  E  E  E  E     E  E  E  E  E  E  E  E   
--------------------------|--------------------------|
--------------------7-----|--------------------------|
--9--9--9--9--9--9-----9--|--L--7--7--7--7--7--7-----|
--------------------------|-----------------------0--|


  E  E  E  E  E  E  E  E     E  E  E  E  E  E  E  E   
--------------------------|--------------------------|
--------------------7--9--|--L-----------------------|
--9--9--9--9--9--9--------|-----7--7--7--7--7--7-----|
--------------------------|-----------------------0--|


  E  E  E  E  E  E  E  E     E  E  E  E  E  E  E  E   
--------------------------|--------------------------|
--------------------7-----|--------------------------|
--9--9--9--9--9--9-----9--|--L--7--7--7--7--7--7-----|
--------------------------|-----------------------0--|


  E  E  E  E  E  E  E  E     E  E  E  E  E  E  E  E   
--------------------------|--------------------------|
--------------------7-----|--------------------------|
--9--9--9--9--9--9-----9--|--L--7--7--7--7--7--7-----|
--------------------------|-----------------------0--|


  E  E  E  E  E  E  E  E     E  E  E  E  E  E  E  E   
--------------------------|--------------------------|
--------------------7-----|--------------------------|
--9--9--9--9--9--9-----9--|--L--7--7--7--7--7--7-----|
--------------------------|-----------------------0--|


  E  E  E  E  E  E  E  E     E  E  E  E  E  E  E  E   
--------------------------|--------------------------|
--------------------7--9--|--L-----------------------|
--9--9--9--9--9--9--------|-----7--7--7--7--7--7-----|
--------------------------|-----------------------0--|


  E  E  E  E  E  E  E  E     E  E  E  E  E  E  E  E   
--------------------------|--------------------------|
--------------------7-----|--------------------------|
--9--9--9--9--9--9-----9--|--L--7--7--7--7--7--7-----|
--------------------------|-----------------------0--|


  E  E  E  E  E  E  E  E     E  E  E  E  E  E  E  E   
--------------------------|--------------------------|
--------------------7-----|--------------------------|
--9--9--9--9--9--9-----9--|--L--7--7--7--7--7--7-----|
--------------------------|-----------------------0--|


  E  E  E  E  E  E  E  E     E  E  E  E  E  E  E  E   
--------------------------|--------------------------|
--------------------7-----|--------------------------|
--9--9--9--9--9--9-----9--|--L--7--7--7--7--7--7-----|
--------------------------|-----------------------0--|


  E  E  E  E  E  E  E  E      E   E  E  E  E  E  E  S S  
--------------------------|-------------------------9-9-|
--------------------7-----|-----------------------------|
--9--9--9--9--9--9-----9--|--(9)--7--7--7--7--7--7------|
--------------------------|-----------------------------|


  E  E  E  S S E  E  E  S S    S S E  E  E  E  E  E  S S  
--9--9--9--7-7-7--7--7------|--------------------------9-|
------------------------9-9-|--9-9-9--9--7--L------------|
----------------------------|------------------9--7--L---|
----------------------------|----------------------------|


  S S E  E  S S E  E  E  S S    E  E  E  E  E  E  Q     
--9-9-9--9--7-7-7--7--7------|-------------------------|
-------------------------9-9-|--9--9--9--7--L----------|
-----------------------------|-----------------9--7----|
-----------------------------|-------------------------|


  E  E  E  S S E  E  E  S S    E  E  E  E  E  E  Q     
--9--9--9--7-7-7--7--7------|-------------------------|
------------------------9-9-|--9--9--9--7--L----------|
----------------------------|-----------------9--7----|
----------------------------|-------------------------|


  S S E  E  S S E  E  E  S S    S S E  E  E  S S S S Q      
--9-9-9--9--7-7-7--7--7------|-----------------------------|
-------------------------9-9-|--9-9-9--7--7--5-5-5-5-4/----|
-----------------------------|-----------------------------|
-----------------------------|-----------------------------|


  E  E  E  E  E  E  E  E     E  E  E  E  E  E  E  E   
--------------------------|--------------------------|
--------------------7-----|--------------------------|
--9--9--9--9--9--9-----9--|--L--7--7--7--7--7--7-----|
--------------------------|-----------------------0--|


  E  E  E  E  E  E  E  E     E  E  E  E  E  E  E  E   
--------------------------|--------------------------|
--------------------7--9--|--L-----------------------|
--9--9--9--9--9--9--------|-----7--7--7--7--7--7-----|
--------------------------|-----------------------0--|


  E  E  E  E  E  E  E  E     E  E  E  E  E  E  E  E   
--------------------------|--------------------------|
--------------------7-----|--------------------------|
--9--9--9--9--9--9-----9--|--L--7--7--7--7--7--7-----|
--------------------------|-----------------------0--|


  E  E  E  E  E  E  E  E      E   E  E  E  E  E  E  S S  
--------------------------|-------------------------9-9-|
--------------------7--9--|--(9)------------------------|
--9--9--9--9--9--9--------|-------7--7--7--7--7--7------|
--------------------------|-----------------------------|


  E  E  E  S S E  E  E  S S    E  E  E  E  E  E  Q     
--9--9--9--7-7-7--7--7------|-------------------------|
------------------------9-9-|--9--9--9--7--L----------|
----------------------------|-----------------9--7----|
----------------------------|-------------------------|


  E  E  E  S S E  E  E  S S    E  E  E  E  E  E  Q     
--9--9--9--7-7-7--7--7------|-------------------------|
------------------------9-9-|--9--9--9--7--L----------|
----------------------------|-----------------9--7----|
----------------------------|-------------------------|


  E  E  E  S S E  E  E  S S    S S E  E  E  E  E  Q     
--9--9--9--7-7-7--7--7------|--------------------------|
------------------------9-9-|--9-9-9--9--7--L----------|
----------------------------|------------------9--7----|
----------------------------|--------------------------|


  S S S S E  S S E  E  E  S S    E  E  E  E  S S S S Q      
--9-9-9-9-9--7-7-7--7--7------|----------------------------|
--------------------------9-9-|--9--9--7--7--5-5-5-5-4/----|
------------------------------|----------------------------|
------------------------------|----------------------------|


  E  E  E  E  E  E  E  E     E  E  E  E  E  E  E  E   
--------------------------|--------------------------|
--------------------7-----|--------------------------|
--9--9--9--9--9--9-----9--|--L--7--7--7--7--7--7-----|
--------------------------|-----------------------0--|


  E  E  E  E  E  E  E  E     E  E  E  E  E  E  E  E   
--------------------------|--------------------------|
--------------------7--9--|--L-----------------------|
--9--9--9--9--9--9--------|-----7--7--7--7--7--7-----|
--------------------------|-----------------------0--|


  E  E  E  E  E  E  E  E     E  E  E  E  E  E  E  E   
--------------------------|--------------------------|
--------------------7-----|--------------------------|
--9--9--9--9--9--9-----9--|--L--7--7--7--7--7--7-----|
--------------------------|-----------------------0--|


  E  E  E  E  E  E  E  E     E  E  E  E  E  E  E  E   
--------------------------|--------------------------|
--------------------7--9--|--L-----------------------|
--9--9--9--9--9--9--------|-----7--7--7--7--7--7-----|
--------------------------|-----------------------0--|


  E  E  E  E  E  E  E  E     E  E  E  E  E  E  E  E   
--------------------------|--------------------------|
--------------------7-----|--------------------------|
--9--9--9--9--9--9-----9--|--L--7--7--7--7--7--7-----|
--------------------------|-----------------------0--|


  E  E  E  E  E  E  E  E      E   E  E  E  E  E  E  S S  
--------------------------|-------------------------9-9-|
--------------------7--9--|--(9)------------------------|
--9--9--9--9--9--9--------|-------7--7--7--7--7--7------|
--------------------------|-----------------------------|


  E  S S E  S S E  S S E  S S    S S S S E  S S   E  S E  S S S  
------------------------------|---------------------------------|
------------------------------|----------------------9----------|
--9--9-9-9--9-9-9--9-9-9--9-9-|--9-9-9-9-9--9-9-9g9----9--9-9-9-|
------------------------------|---------------------------------|


  E  S S E  S S S S S S E  S S    E  S S E  S S E  S E  S E   
-------------------------------|-----------------------------|
--------------------7----------|-------------------7-9--7-9--|
--9--9-9-9--9-9-9-9---9-9--9-9-|--9--9-9-9--9-9-9------------|
-------------------------------|-----------------------------|


  E  E  E  S S S S S S E  S S    E  S S E  S S E  S E  S E   
------------------------------|-------------------7-9--7-9--|
--7---------------------------|------------------------0----|
--0--9--9--9-9-9-9-9-9-9--9-9-|--9--9-9-9--9-9-9------------|
------------------------------|-----------------------------|


  E  E  E  S S S S S S E  S S    E  S E  S S E  S E  E  E   
------------------------------|----------------------------|
--7---------------------------|------------7-9--7-9--7-----|
-----9--9--9-9-9-9-9-9-9--9-9-|--9--0-9-----------------9--|
------------------------------|----------------------------|


  E  S S E  S S S S S S E  S S    E  S S E  S S S S E  E  E   
-------------------------------|------------7-9-L-7----------|
-------------------------------|--------------------9--7-----|
--9--9-9-9--9-9-9-9-9-9-9--9-9-|--9--9-9-9-------------0--9--|
-------------------------------|-----------------------------|


  E  S S E  S S S S S S E  S S    E  S S E  S E  S E  E  E   
-------------------------------|----------------------------|
-------------------------------|------------7-9--7-9--7-----|
--9--9-9-9--9-9-9-9-9-9-9--9-9-|--9--9-9-9---------------9--|
-------------------------------|----------------------------|


  E  S S E  S S S S S S E  S S    E  S E  S S S S S S E  E  S  
-------------------------------|----------------7-9---7-------|
-------------------------------|-----7-9--7-9-L-----0----9----|
--9--9-9-9--9-9-9-9-9-9-9--9-9-|--9---------------------------|
-------------------------------|------------------------------|


  E  S S E  S S E  S S E  S S    E  S E  S E  S S S S S S S S  
------------------------------|----------7----7-7-9-9-9-9-9-9-|
------------------------------|-----7-9----9----0-------------|
--9--9-9-9--9-9-9--9-9-9--9-9-|--9----------------------------|
------------------------------|-------------------------------|


  E  E  E  S S E  E  E  S S    E  E  E  E  E  E  Q     
--9--9--9--7-7-7--7--7------|-------------------------|
------------------------9-9-|--9--9--9--7--L----------|
----------------------------|-----------------9--7----|
----------------------------|-------------------------|


  E  E  E  S S E  E  E  S S    E  E  E  E  E  E  Q     
--9--9--9--7-7-7--7--7------|-------------------------|
------------------------9-9-|--9--9--9--7--L----------|
----------------------------|-----------------9--7----|
----------------------------|-------------------------|


  S S S S E  S S E  E  E  S S    S S S S E  E  E  E  Q     
--9-9-9-9-9--7-7-7--7--7------|---------------------------|
--------------------------9-9-|--9-9-9-9-9--7--L----------|
------------------------------|-------------------9--7----|
------------------------------|---------------------------|


  E  E  E  S S E  E  E  S S    E  E  E  E  S S S S Q      
--9--9--9--7-7-7--7--7------|----------------------------|
------------------------9-9-|--9--9--7--7--5-5-5-5-4/----|
----------------------------|----------------------------|
----------------------------|----------------------------|


  E  S S E  S S E  S S E   S  S     E   S  S  E   S  S  E   E  E  S  S  
--9--9-9-9--9-9-9--9-9-9--11-11-|--11--12-12-12--11-11-11S--9--9--9S-7-|
--------------------------------|--------------------------------------|
--------------------------------|--------------------------------------|
--------------------------------|--------------------------------------|


  E  S S E  S S E  S S E  S S    E  S   S  E   S  S  E   E   S  S  E    
--7--7-7-7--7-7-7--7-7-7--7-7-|--9--9S-11-11--12-12-12--11--11-11-11\--|
------------------------------|----------------------------------------|
------------------------------|----------------------------------------|
------------------------------|----------------------------------------|


  S S S S E  S S S S E  E   S  S     E   S  S  E   S  S  E  S S E  S  S  
--9-9-9-9-9--9-9-9-9-9--9--11-11-|--11--12-12-12--11-11-11--9-9-9--9s-7-|
---------------------------------|--------------------------------------|
---------------------------------|--------------------------------------|
---------------------------------|--------------------------------------|

  S S S S E  S S S S S S E    S  S    S  E   S  S  E   S  S  E   E  S S S  
--7-7-7-7-7--7-7-7-7-7-7-7--7g7S-9-|-11-11--12-12-12--11-11-11S--9--9-9-9-|
-----------------------------------|--------------------------------------|
-----------------------------------|--------------------------------------|
-----------------------------------|--------------------------------------|

  E  S S E  S S E  S S E  S S    E  S S E  S S E  S S E  S S  
------------------------------|------------------------------|
------------------------------|------------------------------|
--9--9-9-9--9-9-9--9-9-9--9-9-|--9--9-9-9--9-9-9--9-9-9--9-9-|
------------------------------|------------------------------|

  E  S S E  S S E  S S E  S S    E  S S E  S S E  S S S S E   
------------------------------|------------------------------|
------------------------------|------------------------------|
--9--9-9-9--9-9-9--9-9-9--9-9-|--9--9-9-9--9-9-9--9-9-9-9-9--|
------------------------------|------------------------------|

  E  S S E  S S E  S S E  S S    E  S S E  S S E  S S E  S S  
------------------------------|------------------------------|
------------------------------|------------------------------|
--9--9-9-9--9-9-9--9-9-9--9-9-|--9--9-9-9--9-9-9--9-9-9--9-9-|
------------------------------|------------------------------|

  E  S S E  S S E  S S E  S S    E  S S E  S S E  E  E  E                     
------------------------------|----------------------------|
------------------------------|----------------------------|
--9--9-9-9--9-9-9--9-9-9--9-9-|--9--9-9-9--9-9-9--9--9--9--|
------------------------------|----------------------------|

  W                   W                   W 
-------------------|-------------------|-------------------||
-------------------|-------------------|-------------------||
-------------------|-------------------|-------------------||
-------------------|-------------------|-------------------||


Duration Legend
---------------
W - whole
H - half
Q - quarter
E - 8th
S - 16th
T - 32nd
X - 64th
. - note dotted
|-n-|  - n-tuplets


Tablature Legend
----------------
L - tied note
g - grace note
(n) - ghost note
/ -  slide into from below or out of upwards
\ -  slide into from above or out of downwards

=============================================================================
comments
We did not receive enough feedback on this tab! Please rate:
print report bad tab
1 2 3 4 5
1 comment total.
+1 reply
MiniShrink wrote on April 24 2009, 07:54 pm

Pretty accurate. Thanks for posting.

I want to post or [tab]
guest
You may want to rate the tab now too:
select rating
Please do not post tabs as comments. Select "correction" instead!