Oops, an error
Loading. Please wait.

Damelo Bass Tab

698 views 1 this week
no commentswrite comment
1 2 3 4 5
please rate
add to favorites launch autoscroll
font size
0
reset
Autoscroll
+/-
esc
set tempo
stop
Contributor
WARNING: You are trying to view
                                    content from Ultimate-Guitar.com
                                    in an unauthorized application,
                                    which is prohibited.

                                    Please use an official Ultimate
                                    Guitar Tabs application for iPhone,
                                    iPad or Android to access legitimate
                                    chords, guitar, bass, and drum tabs
                                    from Ultimate-Guitar.com database.

                                    Type "ultimate guitar tabs" in Apple
                                    App Store's or Android Market's
                                    search to find the application.
G||------------------------|
D||------------------------|
A||--0----0----0-----------|
E||-------------------3-4--|



----------------------------|------------------------|
----------------------------|--0----0----0-----------|
--0--0--0--0--0--0-----3----|-------------------3-4--|
----------------------------|------------------------|



----------------------2-----|------------------------|
--0--0--0--0--0--0--0-------|------------------------|
----------------------------|--0----0----0-----------|
----------------------------|-------------------3-4--|



-----------------------------|------------------------|
-----------------------------|--0----0----0-----------|
--0--0--0--0--0--0---0-3-----|-------------------3-4--|
-----------------------------|------------------------|



---------------------2-----|-----------------------|----------------------|
--0-0--0--0--0--0--0-------|-----------------------|----------------------|
---------------------------|--0-----0--------------|----------------------|
---------------------------|-------------3----3----|--2--2----3----3--3-3-|



-----------------------|----------------------|------------------------|
-----------------------|----------------------|------------------------|
--0----0---------------|----------------------|--0----0----0-----------|
-------------3----3----|--2----2-----3----4---|-------------------3-4--|



----------------------------|------------------------|
----------------------------|--0----0----0-----------|
--0--0--0--0--0--0-----3----|-------------------3-4--|
----------------------------|------------------------|



----------------------2-----|------------------------|
--0--0--0--0--0--0--0-------|------------------------|
----------------------------|--0----0----0-----------|
----------------------------|-------------------3-4--|



----------------------------|------------------------|
----------------------------|--0----0----0-----------|
--0--0--0--0--0--0-----3----|-------------------3-4--|
----------------------------|------------------------|



-----------------------------|------------------------|
--0--0--0--0--0--0--0-4-4----|------------------------|
-----------------------------|--0----0----0-----------|
-----------------------------|-------------------3-4--|



-----------------------------|------------------------|
-----------------------------|--0----0----0-----------|
--0--0--0--0--0--0---0-3-----|-------------------3-4--|
-----------------------------|------------------------|



---------------------2-----|-----------------------|---------------------|
--0-0--0--0--0--0--0-------|-----------------------|---------------------|
---------------------------|--0-----0--------------|---------------------|
---------------------------|-------------3----3----|--2--2----3----3-3---|



-----------------------|----------------------|------------------|
-----------------------|----------------------|------------------|
--0----0---------------|----------------------|------------------|
-------------3----3----|--2----2-----3----4---|------------------|



------------------------|----------------------------|
------------------------|--0--0---0-----0-0----------|
--0----0----0------3-4--|-----------------------3-4--|
------------------------|----------------------------|



----------------------2-----|------------------------|
--0--0--0--0--0--0--0-------|------------------------|
----------------------------|--3----3----3------1-2--|
----------------------------|------------------------|



-----------------------0-----|------------------------|-------------------|
-----------------------------|------------------------|-------------------|
--3--3--3--3--3--3---3-------|------------------------|-------------------|
-----------------------------|--3----3----3------1-2--|--3-3--3--3----3-4-|



------------------------|----------------------------|--------------------|
-------2----------------|----------------------------|--0----0----0-------|
--0---------0-----------|--0--0--0--0--0--0-----3----|-----------------3-4|
-------------------3-4--|----------------------------|--------------------|



----------------------2----|-----------------------|----------------------|
--0--0--0--0--0--0--0------|-----------------------|----------------------|
---------------------------|------0----0-----------|------0-0--0--0----3--|
---------------------------|------------------3-4--|----------------------|



------------------------|---------------------2-----|---------------------|
--0----0----0-----------|--0-0--0--0--0--0--0-------|---------------------|
-------------------3-4--|---------------------------|--0-----0------------|
------------------------|---------------------------|-------------3----3--|



-------------------------|-----------------------|----------------------|
-------------------------|------------------0----|----------------------|
-------------------------|--0----0---------------|----------------------|
--2----2----3-3--3--3--3-|-------------3---------|--2----2-----3----4---|



-------------------|---------------------------|--------------------------|
-------------------|---------------------------|--0--0---0-----0----------|
-------------------|--0-0--0-0--0--0-0----3----|--------------------------|
--------------0----|---------------------------|----------------------1-2-|



-----------------------2-----|-----------------------0--|
-------0-0--0--0--0--0-------|-------------------3-4----|
-----------------------------|--3----3----3-3-----------|
--3--3-----------------------|--------------------------|



----------------------------|------------------------|--------------------|
-----------------------2----|------------------------|--------------------|
--3--3--3--3--3--3---3------|------------------------|--------------------|
----------------------------|--3----3----3------1-2--|--3-3--3--3----3-4--|



------------------------|----------------------------|
-------2----------------|----------------------------|
--0---------0-----------|--0--0--0--0--0--0-----3----|
-------------------3-4--|----------------------------|



------7-7----7-7----7-7----7-7--|-----7-7----7-7----7-7-------|
--0-0-----0------0------0-------|--0------0-------0-----------|
--------------------------------|-----------------------------|
--------------------------------|-----------------------0-3---|



------------------------|--7--5--4--2--------------|
------------------------|--------------0-----------|
--0----0----0-----------|-----------------3--2--0--|
---------------3--2--0--|--------------------------|



-------------------------------|----------------------------|
--0--0-0-0--0-0-0--0-0-0--0-0--|--0--0-0-0--0-0-0--0-0-0----|
-------------------------------|----------------------------|
-------------------------------|----------------------------|



-------------------|----------------------------|----------------------|
-------------------|----------------------------|--0-------------------|
--0----------------|--0--0--0--0--0--0-----3----|-----------------3-4--|
-------------------|----------------------------|----------------------|



----------------------2-----|-------------------|----------------------0-|
--0--0--0--0--0--0--0-------|-------------------|------------------------|
----------------------------|--0----------------|--0--0--0--0--0--0------|
----------------------------|-------------------|------------------------|



----------------------|-------------------------------|-------------------|
--0-------------------|--0-0--0--0--0-0-0-0-----------|-------------------|
-----------------3-4--|-------------------------------|--0----0----0------|
----------------------|----------------------3----4---|--------------3-4--|



------------------------------|--------------------------|
------------------------------|--0--0---0----0-----------|
--0-0--0--0--0--0---0----3----|---------------------3-4--|
------------------------------|--------------------------|



-----------------------2-----|------------------------|
--0--0--0--0--0--0---0-------|------------------------|
-----------------------------|--3----3----3------1-2--|
-----------------------------|------------------------|



-----------------------0-----|------------------------|
-----------------------------|------------------------|
--3--3--3--3--3--3---3-------|------------------------|
-----------------------------|--3----3----3------1-2--|



-----------------------------|--------------------------|
-----------------------------|--------------------------|
-----------------------------|--0-0----0----0-----------|
--3-3--3--3--3--3-3-3----4---|---------------------3-4--|



------------------------------|--------------------------|
------------------------------|--0--0---0----0-----------|
--0-0--0--0--0--0---0----3----|---------------------3-4--|
------------------------------|--------------------------|



-----------0----------2-----|------------------------|
--0--0--0-----0--0--0-------|------------------------|
----------------------------|--3----3----3------1-2--|
----------------------------|------------------------|



--------0--------------0-----|----------------------|------------------||
-----------------------------|----------------------|------------------||
--3--3-----3--3--3---3-------|--------------------0-|------------------||
-----------------------------|--3----3----3---------|------------------||

comments
We did not receive enough feedback on this tab! Please rate:
print report bad tab
1 2 3 4 5
I want to post or [tab]
guest
You may want to rate the tab now too:
select rating
Please do not post tabs as comments. Select "correction" instead!