Oops, an error
Loading. Please wait.

Before The Dawn Tab

ver1
ver1

Whole song

Interactive

More versions @911Tabs.com
7,316 views 15 this week
no commentswrite comment
1 2 3 4 5
accurate
x 3
Autoscroll
+/-
esc
set tempo
stop
Contributor
Hey! There's an official Ultimate Guitar app which is ideal
for learning songs when you're away from computer. Get the app
WARNING: You are trying to view
                                    content from Ultimate-Guitar.com
                                    in an unauthorized application,
                                    which is prohibited.

                                    Please use an official Ultimate
                                    Guitar Tabs application for iPhone,
                                    iPad or Android to access legitimate
                                    chords, guitar, bass, and drum tabs
                                    from Ultimate-Guitar.com database.

                                    Type "ultimate guitar tabs" in Apple
                                    App Store's or Android Market's
                                    search to find the application.
clean guitar
very cool song and great solo



                                                                            
E||------------------|--------------------------|--------------------------|
B||------------------|-----0-----0-----0-----0--|-----1-----1--0--1--------|
G||------------------|--------0-----------0-----|--------2-----------2--0--|
D||------------------|--------------2-----------|--------------------------|
A||------------------|--------------------------|--0-----------------------|
E||------------------|--0-----------------------|--------------------------|


                                                      
--------------2-----------|--------------------------|
-----3-----3-----3-----0--|-----0-----0--4--0-----0--|
--------2-----------2-----|--------2-----------2-----|
--0-----------------------|--------------------------|
--------------------------|--2-----------------------|
--------------------------|--------------------------|


                                                      
--------------------------|--------------------------|
-----0-----0-----0-----0--|-----1-----1--0--1--------|
--------0-----------0-----|--------2-----------2--0--|
--------------2-----------|--------------------------|
--------------------------|--0-----------------------|
--0-----------------------|--------------------------|


                                                      
--------------2--0--------|--0-----------------------|
-----0-----0--------4--0--|-----0-----0-----0-----0--|
--------2-----------------|--------0-----------0-----|
--------------------------|--------------2-----------|
--2-----------------------|--------------------------|
--------------------------|--0-----------------------|


                                                      
--------------------------|--------------------------|
-----0-----0-----0-----0--|-----1-----1--0--1--------|
--------0-----------0-----|--------2-----------2--0--|
--------------2-----------|--------------------------|
--------------------------|--0-----------------------|
--0-----------------------|--------------------------|


                                                      
--------------2-----------|--------------------------|
-----3-----3-----3-----0--|-----0-----0--4--0-----0--|
--------2-----------2-----|--------2-----------2-----|
--0-----------------------|--------------------------|
--------------------------|--2-----------------------|
--------------------------|--------------------------|


                                                      
--------------------------|--------------------------|
-----0-----0-----0-----0--|-----1-----1--0--1--------|
--------0-----------0-----|--------2-----------2--0--|
--------------2-----------|--------------------------|
--------------------------|--0-----------------------|
--0-----------------------|--------------------------|


                                                      
--------------2--0--------|--0-----------------------|
-----0-----0--------4--0--|-----0-----0-----0-----0--|
--------2-----------------|--------0-----------0-----|
--------------------------|--------------2-----------|
--2-----------------------|--------------------------|
--------------------------|--0-----------------------|


                                                      
--------------------------|--------------------------|
-----0-----0-----0-----0--|-----1-----1--0--1--------|
--------0-----------0-----|--------2-----------2--0--|
--------------2-----------|--------------------------|
--------------------------|--0-----------------------|
--0-----------------------|--------------------------|


                                                      
--------------2-----------|--------------------------|
-----3-----3-----3-----3--|-----0-----0--4--0-----0--|
--------2-----------2-----|--------2-----------2-----|
--0-----------------------|--------------------------|
--------------------------|--2-----------------------|
--------------------------|--------------------------|


                                                      
--------------------------|--------------------------|
-----0-----0-----0-----0--|-----1-----1--0--1--------|
--------0-----------0-----|--------2-----------2--0--|
--------------2-----------|--------------------------|
--------------------------|--0-----------------------|
--0-----------------------|--------------------------|


                                                      
--------------2--0--------|--0-----------------------|
-----0-----0--------4--0--|-----0-----0-----0-----0--|
--------2-----------------|--------0-----------0-----|
--------------------------|--------------2-----------|
--2-----------------------|--------------------------|
--------------------------|--0-----------------------|


                                                       
--0-----------------------|---------------8--------8--|
-----0-----0-----0-----0--|---------8--------8--------|
--------0-----------0-----|------9-----9--------9-----|
--------------2-----------|--10-----------------------|
--------------------------|---------------------------|
--0-----------------------|---------------------------|


                                                                
------------------10----------10--|--------7-----10--7-----10--|
----------12----------12----------|-----9-----9---------9------|
------12------12----------12------|----------------------------|
----------------------------------|----------------------------|
--10------------------------------|--7-------------------------|
----------------------------------|----------------------------|


                                                               
------------------12----------12--|---------------8--------8--|
----------13----------13----------|---------8--------8--------|
------14------14----------14------|------9-----9--------9-----|
----------------------------------|--10-----------------------|
--12------------------------------|---------------------------|
----------------------------------|---------------------------|


                                                      
--------------------------|--------------2-----------|
--3-----0-----3--0--------|--------3--1-----3--1-----|
-----0-----0--------0-----|-----2-----------------2--|
-----------------------0--|--0-----------------------|
--------------------------|--------------------------|
--3-----------------------|--------------------------|


                                                      
--------------2-----------|--------------------------|
-----3-----1-----3-----1--|--------------1--------1--|
--------2-----------2-----|--------0--------0--------|
--0-----------------------|-----2-----2--------2-----|
--------------------------|--3-----------------------|
--------------------------|--------------------------|


                                                      
--------------------------|--------------------------|
--------0-----3--0-----3--|--------0-----3--0-----3--|
-----0-----0--------0-----|-----1-----1--------1-----|
--------------------------|--------------------------|
--------------------------|--------------------------|
--3-----------------------|--0-----------------------|


                                                      
--------------0--------0--|--------------0--------0--|
--------1--------1--------|--------1--------1--------|
-----2-----2--------2-----|-----2-----2--------2-----|
--------------------------|--------------------------|
--0-----------------------|--0-----------------------|
--------------------------|--------------------------|


                                                      
--------0-----0--------0--|--------------2-----------|
-----------------1--------|-----0--3--0-----3--0-----|
-----0-----0--------0-----|--------------------------|
--------------------------|-----------------------4--|
--3-----------------------|--2-----------------------|
--------------------------|--------------------------|


                                                      
--------------2-----------|--------------0-----------|
-----0--3--0-----3--0-----|--------0--------0-----0--|
--------------------------|-----------0--------0-----|
-----------------------4--|-----2--------------------|
--2-----------------------|--------------------------|
--------------------------|--0-----------------------|


                                                      
--------------0-----------|--------------------------|
--------0--------0-----0--|--------------1--------1--|
-----0-----0--------0-----|--------0--------0--------|
--------------------------|-----2-----2--------2-----|
--------------------------|--3-----------------------|
--0-----------------------|--------------------------|


                                                      
--------------2-----------|--------------0--------0--|
--------3--------3-----3--|--------1--------1--------|
-----2-----2--------2-----|-----2-----2--------2-----|
--------------------------|--------------------------|
--2-----------------------|--0-----------------------|
--------------------------|--------------------------|


                                                      
--------------0--------0--|--------------------------|
--------1--------1--------|--------------1--------1--|
-----2-----2--------2-----|--------0--------0--------|
--------------------------|-----2-----2--------2-----|
--0-----------------------|--3-----------------------|
--------------------------|--------------------------|


                                                      
--------------2-----------|--------------0--------0--|
--------3--------3-----3--|--------1--------1--------|
-----2-----2--------2-----|-----2-----2--------2-----|
--------------------------|--------------------------|
--2-----------------------|--0-----------------------|
--------------------------|--------------------------|


                                                      
--------------0--------0--|--------------------------|
--------1--------1--------|--------------1--------1--|
-----2-----2--------2-----|--------0--------0--------|
--------------------------|-----2-----2--------2-----|
--0-----------------------|--3-----------------------|
--------------------------|--------------------------|


                                                      
--------------2-----------|--------------0--------0--|
--------3--------3-----3--|--------1--------1--------|
-----2-----2--------2-----|-----2-----2--------2-----|
--------------------------|--------------------------|
--2-----------------------|--0-----------------------|
--------------------------|--------------------------|


                                                      
--------------0--------0--|--------0-----0--------0--|
--------1--------1--------|-----------------1--------|
-----2-----2--------2-----|-----0-----0--------0-----|
--------------------------|--------------------------|
--0-----------------------|--3-----------------------|
--------------------------|--------------------------|


                                                      
--------------2-----------|--------------0-----------|
-----0--3--0-----3--0-----|--------0--------0-----0--|
--------------------------|-----0-----0--------0-----|
-----------------------4--|--------------------------|
--2-----------------------|--------------------------|
--------------------------|--0-----------------------|


                                                               
---------------8--------8--|------------------10----------10--|
---------8--------8--------|----------12----------12----------|
------9-----9--------9-----|------12------12----------12------|
--10-----------------------|----------------------------------|
---------------------------|--10------------------------------|
---------------------------|----------------------------------|


                                                                
--------7-----10--7-----10--|------------------12----------12--|
-----9-----9---------9------|----------13----------13----------|
----------------------------|------14------14----------14------|
----------------------------|----------------------------------|
--7-------------------------|--12------------------------------|
----------------------------|----------------------------------|


                                                       
---------------8--------8--|--------------------------|
---------8--------8--------|--3-----0-----3--0--------|
------9-----9--------9-----|-----0-----0--------0-----|
--10-----------------------|-----------------------0--|
---------------------------|--------------------------|
---------------------------|--3-----------------------|


                                                      
--------------2-----------|--------------2-----------|
--------3--1-----3--1-----|-----3-----1-----3-----1--|
-----2-----------------2--|--------2-----------2-----|
--0-----------------------|--0-----------------------|
--------------------------|--------------------------|
--------------------------|--------------------------|


                                                      
--------------------------|--------------------------|
--------------1--------1--|--------0-----3--0-----3--|
--------0--------0--------|-----0-----0--------0-----|
-----2-----2--------2-----|--------------------------|
--3-----------------------|--------------------------|
--------------------------|--3-----------------------|


                                                      
--------------------------|--------------0--------0--|
--------0-----3--0-----3--|--------1--------1--------|
-----1-----1--------1-----|-----2-----2--------2-----|
--------------------------|--------------------------|
--------------------------|--0-----------------------|
--0-----------------------|--------------------------|


                                                      
--------------0--------0--|--------0-----0--------0--|
--------1--------1--------|-----------------1--------|
-----2-----2--------2-----|-----0-----0--------0-----|
--------------------------|--------------------------|
--0-----------------------|--3-----------------------|
--------------------------|--------------------------|


                                                      
--------------2-----------|--------------2-----------|
-----0--3--0-----3--0-----|-----0--3--0-----3--0-----|
--------------------------|--------------------------|
-----------------------4--|-----------------------4--|
--2-----------------------|--2-----------------------|
--------------------------|--------------------------|


                                                      
--------------------------|--------------------------|
-----0-----0-----0-----0--|-----1-----1--0--1--------|
--------0-----------0-----|--------2-----------2--0--|
--------------2-----------|--------------------------|
--------------------------|--0-----------------------|
--0-----------------------|--------------------------|


                                                      
--------------2-----------|--------------------------|
-----3-----3-----3-----3--|-----0-----0--4--0-----0--|
--------2-----------2-----|--------2-----------2-----|
--0-----------------------|--------------------------|
--------------------------|--2-----------------------|
--------------------------|--------------------------|


                                                      
--------------------------|--------------------------|
-----0-----0-----0-----0--|-----1-----1--0--1--------|
--------0-----------0-----|--------2-----------2--0--|
--------------2-----------|--------------------------|
--------------------------|--0-----------------------|
--0-----------------------|--------------------------|


                                                                   
--------------------------|-------------------|------------------||
-----0-----0-----0--------|-------------------|------------------||
--------2-----2-----0-----|-------------------|------------------||
-----------------------4--|--2----------------|------------------||
--2-----------------------|-------------------|------------------||
--------------------------|-------------------|------------------||
comments
We did not receive enough feedback on this tab! Please rate:
print report bad tab
1 2 3 4 5
I want to post or [tab]
guest
You may want to rate the tab now too:
select rating
Please do not post tabs as comments. Select "correction" instead!