Oops, an error
Loading. Please wait.

Between The Hammer And The Anvil Tab

ver1
ver1

Solo

Whole song

More versions @911Tabs.com
4,116 views 6 this week
no commentswrite comment
1 2 3 4 5
excellent!
x 3
Autoscroll
+/-
esc
set tempo
stop
Difficulty
advanced
WARNING: You are trying to view
                                    content from Ultimate-Guitar.com
                                    in an unauthorized application,
                                    which is prohibited.

                                    Please use an official Ultimate
                                    Guitar Tabs application for iPhone,
                                    iPad or Android to access legitimate
                                    chords, guitar, bass, and drum tabs
                                    from Ultimate-Guitar.com database.

                                    Type "ultimate guitar tabs" in Apple
                                    App Store's or Android Market's
                                    search to find the application.
Artist : JUDAS PRIEST
Song: Between The Hammer & The Anvil
Album : Painkiller
 Only the solos part

Kk solo

 The most parts of the solo uses A. H.

  PM                          PM PM PM PM PM         PM PM PM
  |-------6---------------|  |--6--|  |--6--| |--6--|  |--6--| |--6-| |---3---|

|----------------------------------------------------------------------------------------|
|-----------------------------------------------------------------------------7p--5p--4--|
|----------------------------------------------------------------------4h-6-8------------|
|---------------------------------------------4h-6h-7----------4h-6h-7-------------------|
|------------------------------------4--6--7----------4--5--7----------------------------|
|--4---------------------------5--7------------------------------------------------------|

  W                          SH
|-----------------------|-----------------------|----------------------------|
|-----------------------|-----------------------|----------------------------|
|--9--------L--8h----9--|--<>11b----------------|-----9--11p-9--8-9b----L----|
|-----------------------|-----------------------|----------------------------|
|-----------------------|-----------------------|----------------------------|
|-----------------------|-----------------------|----------------------------|

                                                    W
|--------------------------------------14-12-11--|--12--------12--14--15----|
|--------------------------13-12----12-----------|--------------------------|
|--------------14-12-11-12-------14--------------|--------------------------|
|--16-14-13-14-----------------------------------|--------------------------|
|------------------------------------------------|--------------------------|
|------------------------------------------------|--------------------------|

|--15br--------14p-12-----------------|----------------------------------------------------------|
|---------------------15--15p-12------|--------------------12-12-12-15p-12----12-----------------|
|--------------------------------14b--|--14br-12----12-14b-----------------15----15-14-12-14-14b-|
|-------------------------------------|----------14----------------------------------------------|
|-------------------------------------|----------------------------------------------------------|
|-------------------------------------|----------------------------------------------------------|

                  W
|------------------------------|--19-15-15-15-19-15-15-15-17-15-15-15----------19-|
|------15----------------------|--------------------------------------19-17-15----|
|--15------14p-12--------------|--------------------------------------------------|
|------------------------------|--------------------------------------------------|
|-----------------14--------=--|--------------------------------------------------|
|------------------------------|--------------------------------------------------|


|--15-19-15-19-17-15-15-15-17-15------------19-|--15-19-15-15-19-15-15-15-17-15-15-15-17--15--|
|---------------------------------19-17-15-----|----------------------------------------------|
|----------------------------------------------|----------------------------------------------|
|----------------------------------------------|----------------------------------------------|
|----------------------------------------------|----------------------------------------------|
|----------------------------------------------|----------------------------------------------|

|--------------15-15-15-15-----------------------|-------------------12----------------|
|--19-19-19-19-------------19-19-19-19-17-17-17--|--15b---------15b-----15p-12---------|
|------------------------------------------------|----------------------------14br--12-|
|------------------------------------------------|-------------------------------------|
|------------------------------------------------|-------------------------------------|
|------------------------------------------------|-------------------------------------|

         /0\
                                       |---3------------------------------------------------------|
|-------------------------|-----------------------------------|-------------------------22p-19----|
|-------------------------|-----------------------------------|--------------------------------20b|
|--------11--------12b----|--12br----14--12--11--12-----------|-----------------------------------|
|--14---------------------|--------------------------14~------|--14-14-14-14-16-16-16-16----------|
|-------------------------|-----------------------------------|-----------------------------------|
|-------------------------|-----------------------------------|-----------------------------------|

Glenn solo
  T         T  T         T  T         T  T         T
|------------------------------------------------------|
|------------------------------------------------------|
|--12p-8p-5h-12-12p-8p-5h-12-12p-8p-5h-12-12p-8p-5h-13-|
|------------------------------------------------------|
|------------------------------------------------------|
|------------------------------------------------------|

   T         T  T         T  T         T  T         T
|------------------------------------------------------|
|------------------------------------------------------|
|--13p-8p-5h-13-13p-8p-5h-13-13p-8p-5h-13-13p-8p-5h-13-|
|------------------------------------------------------|
|------------------------------------------------------|
|------------------------------------------------------|

   T          T  T          T  T          T  T          T
|----------------------------------------------------------|
|----------------------------------------------------------|
|--13p-10p-7h-13-13p-10p-7h-13-13p-10p-7h-13-13p-10p-7h-15-|
|----------------------------------------------------------|
|----------------------------------------------------------|
|----------------------------------------------------------|

   T          T  T          T   T          T   T          T
|------------------------------------------------------------|
|------------------------------------------------------------|
|--15p-10p-7h-15-15p-10p-7h-15h-15p-10p-7h-15h-15p-10p-7h-15-|
|------------------------------------------------------------|
|------------------------------------------------------------|
|------------------------------------------------------------|

   T          T  T          T  T          T  T          T
|----------------------------------------------------------|
|----------------------------------------------------------|
|--15p-12p-9h-15-15p-12p-9h-15-15p-12p-9h-15-15p-12p-9h-15-|
|----------------------------------------------------------|
|----------------------------------------------------------|
|----------------------------------------------------------|

   T      T      T      T      T      T      T      T      T      T      T      T
   |---6--|  |---6--|   |---6--|  |---6--|   |---6--|  |---6--|   |------5-----------|
|------------------------------------------------------------------------------------|
|------------------------------------------------------------------------------------|
|--15p-9h-12p-9h-12p-9h-12p-9h-15p-9h-12p-9h-12p-9h-12p-9h-15p-9h-12p-9h-17p-9h-13---|
|------------------------------------------------------------------------------------|
|------------------------------------------------------------------------------------|
|------------------------------------------------------------------------------------|

   T           T  T           T  T            T
|------------------------------------------------------------|
|------------------------------------------------------------|
|--17p-13p-10h-17-17p-13p-10h-17-17p-13p-10h--17p-13p-10h-13-|
|------------------------------------------------------------|
|------------------------------------------------------------|
|------------------------------------------------------------|

   T       T       T  T       T       T  T       T       T  T        T
   |---3---|          |---3---|          |---3-----------------------------|
|--------------------------------------------------------------------------|
|--------------------------------------------------------------------------|
|--13p-10h-13p-10h-13-13p-10h-13p-10h-13-13p-10h-13p-10h-13-13p--10h-13h---|
|--------------------------------------------------------------------------|
|--------------------------------------------------------------------------|
|--------------------------------------------------------------------------|

      T        T              T  T              T  T
                                                  |---6--|  |---6---------|
|-------------------------------------------------------------------------|
|-------------------------------------------------------------------------|
|--7h-10p-7-7h-14p-10p-7h-10h-14-14p-10p-7h-10h-14-14p-7h-10p-7h-10p-7h---|
|-------------------------------------------------------------------------|
|-------------------------------------------------------------------------|
|-------------------------------------------------------------------------|


   T      T      T      T      T      T      T      T  T      T  T
   |---6--|  |---6--|   |---6--|  |---6-----------------------------------|
|-------------------------------------------------------------------------|
|-------------------------------------------------------------------------|
|--10p-7h-10p-7h-10p-7h-10p-7h-10p-7h-10p-7h-10p-7h-10-12p-7h-10-14p-7h---|
|-------------------------------------------------------------------------|
|-------------------------------------------------------------------------|
|-------------------------------------------------------------------------|

   T         T  T            T  T
|-----------------------------------------------------|
|-----------------------------------------------------|
|--12p-5h-8h-12-12p-5h-8p-5h-12-12p-7p-5-5h-12p-7p-5--|
|-----------------------------------------------------|
|-----------------------------------------------------|
|-----------------------------------------------------|

      T     T     T     T     T     T     T     T T
      |--3--|  |--6--|  |--6--|  |--6--|  |--6----------------|
|-------------------------------------------------------------|
|-------------------------------------------------------------|
|--5h--8p-5h-8p-5h-8p-5h-8p-5h-8p-5h-8p-5h-8p-5h-8-8p-5p--4---|
|-------------------------------------------------------------|
|-------------------------------------------------------------|
|-------------------------------------------------------------|

     T     T     T     T          T           T
                          |---3---|   |---3---------|
|---------------------------------------------------|
|---------------------------------------------------|
|--4h-7p-4h-8p-4h-7p-4h-8p-7p--4h--8p--7p--4h--7----|
|---------------------------------------------------|
|---------------------------------------------------|
|---------------------------------------------------|

  T     T     T     T     T     T     T     T     T    T
  |--6--|  |--6--|  |--6--|  |--6--|  |--6--|  |--6-----------------------------------------|
|---------------------------------------------------------------|---------------------------|
|---------------------------------------------------------------|---------------------------|
|--7p-4h-7p-4h-7p-4h-7p-4h-7p-4h-7p-4h-7p-4h-7p-4h-7p-4-7p-4-4--|---------------------------|
|---------------------------------------------------------------|--5--8-5-------------------|
|---------------------------------------------------------------|---------5--8--6--5--------|
|---------------------------------------------------------------|-----------------------7S--|


Tablature Legend

SH - semi harmonic
br – bendRelease
b – Bend
p - Pull off
Pm – palm mute
= - tied note
S - Shift slide
T – Tapping
h - Hammer on
comments
We did not receive enough feedback on this tab! Please rate:
print report bad tab
1 2 3 4 5
I want to post or [tab]
guest
You may want to rate the tab now too:
select rating
Please do not post tabs as comments. Select "correction" instead!