Oops, an error
Loading. Please wait.

Between The Hammer And The Anvil Tab

ver3
ver3

Solo

Whole song

More versions @911Tabs.com
237 views 1 this week
no commentswrite comment
1 2 3 4 5
please rate
Autoscroll
+/-
esc
set tempo
stop
Contributor
NEW! There's an official Ultimate Guitar app which is ideal
for learning songs when you're away from computer. Get the app
WARNING: You are trying to view
                                    content from Ultimate-Guitar.com
                                    in an unauthorized application,
                                    which is prohibited.

                                    Please use an official Ultimate
                                    Guitar Tabs application for iPhone,
                                    iPad or Android to access legitimate
                                    chords, guitar, bass, and drum tabs
                                    from Ultimate-Guitar.com database.

                                    Type "ultimate guitar tabs" in Apple
                                    App Store's or Android Market's
                                    search to find the application.
Tab: Between The Hammer & The Anvil - Judas Priest
Album: Painkiller (1990)
Tabbed by notenoughcharac

Riff 1    Guitar 1 (0:00-0:33)                                x4
e|-------------------------------------------------------------|
B|-------------------------------------------------------------|
G|-------------------------------------------------------------|
D|-------------------------------------------------------------|
A|-7---------(7)S=4---------(4)S=10--------(10)S=4---------(4)S|
E|-5---------(5)S=2---------(2)S=8---------(8)S==2---------(2)S|

Riff 1a    Guitar 2 (0:16-0:33)                                 x2
e|---------------------------------------------------------------|
B|---------------------------------------------------------------|
G|---------------------------------------------------------------|
D|---------------------------------------------------------------|
A|-10--------(10)S=7---------(7)S=13---------(13)S=7---------(7)S|
E|-8---------(8)S==5---------(5)S=11---------(11)S=5---------(5)S|
NOTE: Don't slide the last note when playing Riff 1 and Riff 1a when
playing it for the last time.

Riff 2    Guitars 1, 2 (0:33-0:44)                   x2
e|----------------------------------------------------|
B|----------------------------------------------------|
G|----------------------------------------------------|
D|-----5-----5-----5-----5--4~-------5-----5---5--4--7|
A|-----7-----7-----7-----7--5~-------7-----7---7--5--5|
E|-0-0---0-0---0-0---0-0---------0-0---0-0---0--------|
   . .   . .   . .   . .         . .   . .   .

Guitar 3 (0:38-0:44)
e|------------------------------------|
B|-------<5>d-------------------------|
G|-x-5p0-<5>d--------/12~*-------(12)d|
D|------------------------------------|
A|------------------------------------|
E|------------------------------------|

Riff 3    Guitars 1, 2 (0:44-1:05)                         x4
e|---------------------------------------------------------|
B|---------------------------------------------------------|
G|---------------------------------------------------------|
D|-----5-----5-----5-----5--4~-------5-----5-----5-----5-7~|
A|-----7-----7-----7-----7--5~---3-3-3-3-3-3-3-3-3-3-3-3-5~|
E|-0-0---0-0---0-0---0-0-----------------------------------|
   . .   . .   . .   . .         . .   . .   . .   . .

Guitar 3 (0:52-0:55)
e|-21-19----------------21-19-------------------------------|
B|-------19-21-19----19-------21-19-------------------------|
G|----------------21----------------21----------------------|
D|----------------------------------------------------------|
A|---------------------------------------------[10]b12r10~*-|
E|-------------------------------------12--10---------------|

Riff 3a    Guitars 1, 2 (1:06-1:10)
e|---------------------|
B|---------------------|
G|---------------------|
D|-5----------2---2---4|
A|-3----------0---0---2|
E|---------------------|

Riff 4    Guitars 1, 2 (1:12-1:17)
e|------------------------------------------------|
B|------------------------------------------------|
G|------------------------------------------------|
D|----9---8---5---4-----------9---8---5---4-------|
A|----7---6---3---2-----------7---6---3---2-------|
E|-0------------------3-2-0-------------------3-2-|
 |                    . .                     . . |
 |Riff 4a    Guitar 2               (1:12-1:17)   |
e|------------------------------------------------|
B|------------------------------------------------|
G|------------------------------------------------|
D|----9---8---5---4-----------12---11--8---7------|
A|----7---6---3---2-----------10---9---6---5------|
E|-0------------------3-2-0--------------------6-5|
                      . .                      . .

Riff 3    Guitar 1 (1:17-1:40)                                 x4
e|-------------------------------------------------------------|
B|-------------------------------------------------------------|
G|-------------------------------------------------------------|
D|-----5-----5-----5-----5--4~--------5-----5-----5-----5-7~---|
A|-----7-----7-----7-----7--5~----3-3-3-3-3-3-3-3-3-3-3-3-5~---|
E|-0-0---0-0---0-0---0-0---------------------------------------|
 | . .   . .   . .   . .          . .   . .   . .   . .        |
 |                                                             |
 |Riff 5 x1    Guitar 2                             (1:17-1:23)|
e|-------------------------------------------------------------|
B|-------------------------------------------------------------|
G|-------------------------------------------------------------|
D|-----9-----9-----9-----9---[7]~-----5-----5-----5-----5--[4]~|
A|-7-7---7-7---7-7---7-7----------3-3---3-3---3-3---3-3--------|
E|-------------------------------------------------------------|
 | . .   . .   . .   . .          . .   . .   . .   . .        |
 |                                                             |
 |                                                  (1:23-1:28)|
e|-------------------------------------------------------------|
B|-------------------------------------------------------------|
G|-------------------------------------------------------------|
D|-----9-----9-----9p7s5-7--5-(5)S==2~----2-4-5--4-5-9~--------|
A|-7-7---7-7---7-7---------------------------------------------|
E|-------------------------------------------------------------|
 | . .   . .   . .                                             |
 |                                                  (1:29-1:34)|
e|-------------------------------------------------------------|
B|-------------------------------------------------------------|
G|-------------------------------------------------------------|
D|-----9-----9-----9-----9---[7]~-------5-----5-----5-----5--4~|
A|-7-7---7-7---7-7---7-7------------3-3---3-3---3-3---3-3------|
E|-------------------------------------------------------------|
 | . .   . .   . .   . .            . .   . .   . .   . .      |
 |                                                             |
 |                                                  (1:34-1:40)|
e|-------------------------------------------------------------|
B|-------------------------------------------------------------|
G|-------------------------------------------------------------|
D|-----9-----9-----9p7s5-7--5-(5)S==2~----2-4-4s5--4-5-9~--9p5-|
A|-7-7---7-7---7-7---------------------------------------------|
E|-------------------------------------------------------------|
   . .   . .   . .

Riff 3a    Guitar 1 (1:40-1:44)
e|------------------------------------------------|
B|------------------------------------------------|
G|------------------------------------------------|
D|-5-------------------2---2---4------------------|
A|-3-------------------0---0---2------------------|
E|------------------------------------------------|
 |                                                |
 |Riff 5 continuation    Guitar 2      (1:40-1:45)|
e|------------------------------------------------|
B|-------------------------------5s7-7s8-8s10-10\-|
G|-7----5----4----2----0---0---2-x-x-x-x-x-x--x\--|
D|-------------------------------2s4-4s5-5s7--7\--|End Riff 5
A|------------------------------------------------|
E|------------------------------------------------|

Riff 4    Guitars 1, 2 (1:45-1:51)
e|------------------------------------------------|
B|------------------------------------------------|
G|------------------------------------------------|
D|----9---8---5---4-----------9---8---5---4-------|
A|----7---6---3---2-----------7---6---3---2-------|
E|-0------------------3-2-0-------------------3-2-|
 |                    . .                     . . |
 |                                                |
 |Riff 4a    Guitar 2               (1:45-1:51)   |
e|------------------------------------------------|
B|------------------------------------------------|
G|------------------------------------------------|
D|----9---8---5---4-----------12---11--8---7------|
A|----7---6---3---2-----------10---9---6---5------|
E|-0------------------3-2-0--------------------6-5|
                      . .                      . .

Riff 6    Guitars 1, 2 (1:51-1:54)
e|--------------------------------|
B|--------------------------------|
G|--------------------------------|
D|--------------------------------|
A|--------------------------------|
E|-0-3-2-0-3-0-3-2-0-3-2-0-3-0-3-4|
   . . . . . . . . . . . . . .

Riff 1    Guitars 1, 2 (1:54-2:27)   PLAY IN DOUBLE-TIME FEEL x6
e|-------------------------------------------------------------|
B|-------------------------------------------------------------|
G|-------------------------------------------------------------|
D|-------------------------------------------------------------|
A|-7---------(7)S=4---------(4)S=10--------(10)S=4---------(4)S|
E|-5---------(5)S=2---------(2)S=8---------(8)S==2---------(2)S|

Riff 1a    Guitar 2 (2:16-2:27)   PLAY IN DOUBLE-TIME FEEL      x2
e|---------------------------------------------------------------|
B|---------------------------------------------------------------|
G|---------------------------------------------------------------|
D|---------------------------------------------------------------|
A|-10--------(10)S=7---------(7)S=13---------(13)S=7---------(7)S|
E|-8---------(8)S==5---------(5)S=11---------(11)S=5---------(5)S|
NOTE: Don't slide the last note when playing Riff 1 and Riff 1a when
playing said note for the last time.

Solo    Guitar 3 (2:26-2:49)
e|------------------------------------------------------------------------|
B|------------------------------------------------------------------------|
G|-------------------8-11p9p8--[9]~----8--9-11-11b====12r=11-9h11p9-8-[9]~|
D|-------------7-9--------------------------------------------------------|
A|---------7-9------------------------------------------------------------|
E|-7-10-11----------------------------------------------------------------|
   .  .  .

e|---------------------------------14p12p11--[12]~---12-14-15-15b17~--(17)\|
B|---------------10p8p7--13p12p10------------------------------------------|
G|---8-11-9-8h10-10--------------------------------------------------------|
D|-------------------------------------------------------------------------|
A|-------------------------------------------------------------------------|
E|-------------------------------------------------------------------------|

e|-15p14p12-------------------------------------------------------------------------------|
B|----------12-15p14p12------------------------16p15p12-----------------------------------|
G|----------------------0-15p14p12-12-14s16-16------------15h16p15-14p12-14--(14)b17-14p12|
D|----------------------------------------------------------------------------------------|
A|----------------------------------------------------------------------------------------|
E|----------------------------------------------------------------------------------------|

e|------------19-15----15-19-15-15-15-17-15-15----------------19p15-19-15-19p15-15-15-17|
B|------------------17-------------------------19-17-15---------------------------------|
G|------------------------------------------------------16------------------------------|
D|-9~---(9)\-----------------------------------------------17---------------------------|
A|--------------------------------------------------------------------------------------|
E|--------------------------------------------------------------------------------------|

e|-15-15-------------19-15-19p15-15-15-19p15-15-15-17-15-15-15-17p15-15-15-------------15|
B|-------19-19-17-15-------------------------------------------------------19-19-19-19---|
G|---------------------------------------------------------------------------------------|
D|---------------------------------------------------------------------------------------|
A|---------------------------------------------------------------------------------------|
E|---------------------------------------------------------------------------------------|

e|-15-15-15----------------------------------------------------------[15]---([15])d------|
B|----------19-19-19-19-17-17--15b18~---17p15p12-----------------------------------------|
G|-------------------------------------------------16b==18-14p12--------------------14-14|
D|---------------------------------------------------------------14\---------------------|
A|---------------------------------------------------------------------------------------|
E|---------------------------------------------------------------------------------------|

e|-------------------------------------------------------------------------|
B|---------------------12--------------------------------------------------|
G|--12h14p12p11-[12]~-----9\---9-9-9-9-11-11-11-11-[12]p11p9---------------|
D|-----------------------------------------------------------[10]--([10])~-|
A|-------------------------------------------------------------------------|
E|-------------------------------------------------------------------------|


Riff 7 Solo 1 Rythm    Guitars 1, 2 (2:27-2:49)
e|-------------------------------------------------------------------- |
B|-------------------------------------------------------------------- |
G|----------------------------------------------------------|--------- |
D|-----5-----5-----5-----4-x-4~-------5-----5-----5-----5-7~|          |
A|-----7-----7-----7-----5-x-5~---3-3-3-3-3-3-3-3-3-3-3-3-5~|          |
E|-0-0---0-0---0-0---0-0------------------------------------|          |
   . .   . .   . .   . .          . .   . .   . .   . .                |x2
                                                                       |
e|------------------------------------------------------------|        |
B|------------------------------------------------------------|        |
G|------------------------------------------------------------|        |
D|-----5-----5-----5-----4-x-4~-------5-----5-----5-----4-x-4~|------- |
A|-----7-----7-----7-----5-x-5~---3-3-3-3-3-3-3-3-3-3-3-2-x-2~-------- |
E|-0-0---0-0---0-0---0-0---------------------------------------------- |
   . .   . .   . .   . .          . .   . .   . .   . .

Solo 2    Guitar 2 (2:49-3:12)
   T      T    T      T    T      T    T      T    T      T    T
e|--------------------------------------------------------------------|
B|--------------------------------------------------------------------|
G|-12p5h8-12p8-12p8p5-12p8-12p8p5-12p8-12p8p5-13p8-13p8p5-13p8-13p8p5-|
D|--------------------------------------------------------------------|
A|--------------------------------------------------------------------|
E|--------------------------------------------------------------------|

   T    T      T    T      T    T       T     T        T     T       T
e|---------------------------------------------------------------------------|
B|---------------------------------------------------------------------------|
G|-13p8-13p8p5-13p8-13p8p5-13p7-13p10p7-13p10-13p10p17-13p10-13p10p7-13p10---|
D|---------------------------------------------------------------------------|
A|---------------------------------------------------------------------------|
E|---------------------------------------------------------------------------|

   T       T     T       T     T       T     T       T     T       T
e|---------------------------------------------------------------------------|
B|---------------------------------------------------------------------------|
G|-13p10p7-15p10-15p10p7-15p10-15p10p7-15p10-15p10p7-15p10-15p10p7-15p10-----|
D|---------------------------------------------------------------------------|
A|---------------------------------------------------------------------------|
E|---------------------------------------------------------------------------|

   T       T     T       T     T       T     T            T       T    T
e|--------------------------------------------------------------------------|
B|--------------------------------------------------------------------------|
G|-15p12p9-15p12-15p12p9-15p12-15p12p9-15p12-15p12p9h12p9-15p12p9-12p9-12p9-|
D|--------------------------------------------------------------------------|
A|--------------------------------------------------------------------------|
E|--------------------------------------------------------------------------|

   T    T                         T       T       T        T     T
e|------------------------------------------------------------------------|
B|------------------------------------------------------------------------|
G|-12p9-15p12p9-h12p9-h12p9-h12p9-15p12p9-16p12p9-17p13p10-17p13-17p13p10-|
D|------------------------------------------------------------------------|
A|------------------------------------------------------------------------|
E|------------------------------------------------------------------------|

   T     T        T     T        T         T     T         T     T
e|-------------------------------------------------------------------------|
B|-------------------------------------------------------------------------|
G|-17p13-17p13p10-17p13-17p13p10-13p10-h13-13p10-13p10-h13-13p10-13p10-h13-|
D|-------------------------------------------------------------------------|
A|-------------------------------------------------------------------------|
E|-------------------------------------------------------------------------|

   T     T         T     T     T    T        T    T       T    T       T
e|--------------------------------------------------------------------------|
B|--------------------------------------------------------------------------|
G|-13p10-13p10-h13-13p10-13p10-13p7-13p7-h10-13p7-13p7h10-13p7-13p7h10-13p7-|
D|--------------------------------------------------------------------------|
A|--------------------------------------------------------------------------|
E|--------------------------------------------------------------------------|

   T          T    T    T    T    T    T    T  T       T     T      T
e|-----------------------------------------------------------------------|
B|-----------------------------------------------------------------------|
G|-13p7h10-h7-10p7-10p7-10p7-10p7-10p7-10p7-10-12p7h10-13p7--12p5h8-12p5-|
D|-----------------------------------------------------------------------|
A|-----------------------------------------------------------------------|
E|-----------------------------------------------------------------------|

   T      T    T      T    T             T   T   T   T   T   T   T   T   T   T   T
e|--------------------------------------------------------------------------------|
B|--------------------------------------------------------------------------------|
G|-12p8p5-12p5-12p8p5-12p5-12p8p5-h5p3h5-8p5-8p5-8p5-8p5-8p5-8p5-8p5-8p5-8p5-8p5-8|
D|--------------------------------------------------------------------------------|
A|--------------------------------------------------------------------------------|
E|--------------------------------------------------------------------------------|

        T   T     T   T     T   T     T   T   T   T   T   T   T   T   T   T   T
e|-------------------------------------------------------------------------------|
B|-------------------------------------------------------------------------------|
G|-p7p4-8p5-8p5p4-8p5-8p7p4-8p5-8p7p4-7p4-7p4-7p4-7p4-7p4-7p4-7p4-7p4-7p4-7p4-7p4|
D|-------------------------------------------------------------------------------|
A|-------------------------------------------------------------------------------|
E|-------------------------------------------------------------------------------|

   T    T      T     T   T      T   T
e|---------------------------------------------|
B|---------------------------------------------|
G|---------------------------------------------|
D|-10p5-10p8p5-3p1p0--------------------x\--x\-|
A|-------------------3h5-6p5s3\----/3~--x\--x\-|
E|------------------------------3--------------|

Riff 7a Solo Rythm    Guitars 1, 3 (2:50-3:11)
e|-------------------------------------------------------------------|
B|-------------------------------------------------------------------|
G|-------------------------------------------------------------------|
D|-5--------(5)S3-----------------5----------------------------------|
A|-3--------(3)S1--------5--------3--5--6--------(6)S3--------5--6--4|
E|-----------------------3-----------3--4--------(4)S1--------3--4--3|

e|---------------------------|
B|---------------------------|
G|---------------------------|
D|------------5----8--7--4--5|
A|-5----------3----6--5--2--3|
E|-3-------------------------|

Riff 2    Guitar 1 (3:12-3:23)                       x2
e|----------------------------------------------------|
B|----------------------------------------------------|
G|----------------------------------------------------|
D|-----5-----5-----5-----5--4~-------5-----5---5--4--7|
A|-----7-----7-----7-----7--5~-------7-----7---7--5--5|
E|-0-0---0-0---0-0---0-0---------0-0---0-0---0--------|
   . .   . .   . .   . .         . .   . .   .

Riff 2    Guitar 2 (3:17-3:23)                       x2
e|----------------------------------------------------|
B|----------------------------------------------------|
G|----------------------------------------------------|
D|-----5-----5-----5-----5--4~-------5-----5---5--4--7|
A|-----7-----7-----7-----7--5~-------7-----7---7--5--5|
E|-0-0---0-0---0-0---0-0---------0-0---0-0---0--------|
   . .   . .   . .   . .         . .   . .   .

Riff 3    Guitar 1 (3:23-3:44)                                  x4
e|---------------------------------------------------------------|
B|---------------------------------------------------------------|
G|---------------------------------------------------------------|
D|-----5-----5-----5-----5--4~--------5-----5-----5-----5-7~-----|
A|-----7-----7-----7-----7--5~----3-3-3-3-3-3-3-3-3-3-3-3-5~-----|
E|-0-0---0-0---0-0---0-0-----------------------------------------|
 | . .   . .   . .   . .          . .   . .   . .   . .          |
 |                                                               |
 |Riff 5 x1   Guitar 2                                (3:23-3:28)|
e|---------------------------------------------------------------|
B|---------------------------------------------------------------|
G|---------------------------------------------------------------|
D|-----9-----9-----9-----9---[7]~-----5-----5-----5-----5--[4]~--|
A|-7-7---7-7---7-7---7-7----------3-3---3-3---3-3---3-3----------|
E|---------------------------------------------------------------|
 | . .   . .   . .   . .          . .   . .   . .   . .          |
 |                                                               |
 |                                                    (3:28-3:34)|
e|---------------------------------------------------------------|
B|---------------------------------------------------------------|
G|---------------------------------------------------------------|
D|-----9-----9-----9p7s5-7--5-(5)S==2~----2-4-5--4-5-9~----------|
A|-7-7---7-7---7-7-----------------------------------------------|
E|---------------------------------------------------------------|
 | . .   . .   . .                                               |
 |                                                    (3:34-3:39)|
e|---------------------------------------------------------------|
B|---------------------------------------------------------------|
G|---------------------------------------------------------------|
D|-----9-----9-----9-----9---[7]~-------5-----5-----5-----5--[4]~|
A|-7-7---7-7---7-7---7-7------------3-3---3-3---3-3---3-3--------|
E|---------------------------------------------------------------|
 | . .   . .   . .   . .            . .   . .   . .   . .        |
 |                                                               |
 |                                                    (3:40-3:45)|
e|---------------------------------------------------------------|
B|---------------------------------------------------------------|
G|---------------------------------------------------------------|
D|-----9-----9-----9p7s5-7--5-(5)S==2~----2-4-5--4-5-9~--9p5-----|
A|-7-7---7-7---7-7-----------------------------------------------|
E|---------------------------------------------------------------|
   . .   . .   . .

Riff 3a    Guitar 1                      (3:45-3:49)
e|-------------------------------------------------|
B|-------------------------------------------------|
G|-------------------------------------------------|
D|-5-------------------2---2---4-------------------|
A|-3-------------------0---0---2-------------------|
E|-------------------------------------------------|
 |                                                 |
 |Riff 5 continuation    Guitar 2       (3:45-3:50)|
e|-------------------------------------------------|
B|---------------------------------5s7-7s8-8s10-10\|
G|-7~----5----4----2----0---0---2--x-x-x-x-x-x--x--|
D|---------------------------------2s4-4s5-5s7--7\-|End Riff 5
A|-------------------------------------------------|
E|-------------------------------------------------|

Riff 4    Guitars 1, 2 (3:51-4:02)               x2
e|------------------------------------------------|
B|------------------------------------------------|
G|------------------------------------------------|
D|----9---8---5---4-----------9---8---5---4-------|
A|----7---6---3---2-----------7---6---3---2-------|
E|-0------------------3-2-0-------------------3-2-|
 |                     . .                    . . |
 |                                                |
 |Riff 4a    Guitar 2               (3:51-4:02) x2|
e|------------------------------------------------|
B|------------------------------------------------|
G|------------------------------------------------|
D|----9---8---5---4-----------12---11--8---7------|
A|----7---6---3---2-----------10---9---6---5------|
E|-0------------------3-2-0--------------------6-5|
                      . .                      . .

Riff 2    Guitars 1, 2 (4:02-4:07)
e|----------------------------------------------------|
B|----------------------------------------------------|
G|----------------------------------------------------|
D|-----5-----5-----5-----5--4~-------5-----5---5--4--7|
A|-----7-----7-----7-----7--5~-------7-----7---7--5--5|
E|-0-0---0-0---0-0---0-0---------0-0---0-0---0--------|
   . .   . .   . .   . .         . .   . .   .

Riff 2    Guitars 1, 2 (4:08-4:13)
e|-------------------------------------------------------|
B|-------------------------------------------------------|
G|-------------------------------------------------------|
D|-----5-----5-----5-----5--4~-------5-----5---5--4--7--7|
A|-----7-----7-----7-----7--5~-------7-----7---7--5--5--5|
E|-0-0---0-0---0-0---0-0---------0-0---0-0---0-----------|
   . .   . .   . .   . .         . .   . .   .

Riff 2    Guitar 1 (4:13-4:19)                                 x2
e|--------------------------------------------------------------|
B|--------------------------------------------------------------|
G|--------------------------------------------------------------|
D|-----5-----5-----5-----5--4~-------5-----5---5--4--7----------|
A|-----7-----7-----7-----7--5~-------7-----7---7--5--5----------|
E|-0-0---0-0---0-0---0-0---------0-0---0-0---0------------------|
 | . .   . .   . .   . .         . .   . .   .                  |
 |                                                              |
 |Riff 5a    Guitar 2                                (4:13-4:18)|
e|--------------------------------------------------------------|
B|--------------------------------------------------------------|
G|--------------------------------------------------------------|
D|-----9-----9-----9-----9---[7]~-------9-----9---9--7p5-7--5p4-|
A|-7-7---7-7---7-7---7-7------------7-7---7-7---7---------------|
E|--------------------------------------------------------------|
 | . .   . .   . .   . .            . .   . .   .               |
 |                                                              |
 |Guitar 3                                           (4:13-4:19)|
e|-----------+12------------------------------------------------|
B|--------------------------------------------------------------|
G|--------------------------------------------------------------|
D|-2-2----------------------------------------------------------|
A|-2-2----------------------------------------------------------|
E|-0-0----------------------------------------------------------|

Riff 2    Guitar 1 (4:19-4:27)                                        x2
e|---------------------------------------------------------------------|
B|---------------------------------------------------------------------|
G|---------------------------------------------------------------------|
D|-----5-----5-----5-----5--4~-------5-----5---5--4--7--7--5--2--4-----|
A|-----7-----7-----7-----7--5~-------7-----7---7--5--5--5--3--0--2-----|
E|-0-0---0-0---0-0---0-0---------0-0---0-0---0-------------------------|
 | . .   . .   . .   . .         . .   . .   .                         |
 |                                                                     |
 |Riff 5a continuation    Guitar 2                          (4:19-4:27)|
e|---------------------------------------------------------------------|
B|---------------------------------------------------------------------|
G|---------------------------------------------------------------------|
D|-----9-----9-----9-----9---[7]~-------9-----9---9--7s5-7--5p4-5--2--4|
A|-7-7---7-7---7-7---7-7------------7-7---7-7---7----------------------|
E|---------------------------------------------------------------------|
 | . .   . .   . .   . .            . .   . .   .                      |
 |                                                                     |
 |Guitar 3                                                  (4:19-4:27)|
e|-------------+15------------[15]d------------------------------------|
B|---------------------------------------------------------------------|
G|---------------------------------------------------------------------|
D|-2-2-----------------------------------------------------------------|
A|-2-2-----------------------------------------------------------------|
E|-0-0-----------------------------------------------------------------|

Solo 3    Guitar 4 (4:25-4:27)
e|----------------------------------------------------------------------------------|
B|----------------------------------------------------------------------------------|
G|----------------------------------------------------------------------------------|
D|----------------------------------------------------------------------------------|
A|-0-0-4-2-0-4-2-0-2--4p2p0-2p0--4p2p0-[4]p2p0-[4]p2p0----------[4]p2p0--x----------|
E|-----------------------------------------------------[4]p2p0--------------[4]p2p0-|

Riff 8    Guitar 1 (4:27-4:39)
e|---------------------------------------------------------------------------------|
B|---------------------------------------------------------------------------------|
G|---------------------------------------------------------------------------------|
D|-7-9---------(9)S=6---------(6)S=12---------(12)S=6---------(6)S=9---------(9)S=6|
A|-5-7---------(7)S=4---------(4)S=10---------(10)S=4---------(4)S=7---------(7)S=4|
E|---------------------------------------------------------------------------------|
 |                                                                                 |
 |Guitar 2 (4:27-4:39)                                                             |
e|---------------------------------------------------------------------------------|
B|---------------------------------------------------------------------------------|
G|---------------------------------------------------------------------------------|
D|-7-9----------------------------------------------(9)d---------------------------|
A|-5-7----------------------------------------------(7)d---------------------------|
E|---------------------------------------------------------------------------------|

Riff 8 continuation    Guitar 1 (4:39-4:49)
e|---------------------------------------------------------------------------|
B|---------------------------------------------------------------------------|
G|---------------------------------------------------------------------------|
D|---------(6)S=12---------(12)S=6---------(6)S=9---------(9)S=6-------------|
A|---------(4)S=10---------(10)S=4---------(4)S=7---------(7)S=4-------------|
E|---------------------------------------------------------------------------|

TAB LEGEND
--------------------------------------------------------
|  /   slide into (slide to no specific fret(s))
|  \   slide down (slide to no specific fret(s))
|  s   legato slide (slide to certain fret without hitting the target note)
|  S   shift slide (slide to certain fret hitting the target note)
|  =   connects slides/hammer-ons/pull-offs
|  h   hammer-on
|  p   pull-off
|  ~   vibrato
| <x>  natural harmonic (x=random note)
| [x]  artificial harmonic (x=random note)
| (x)  ghost note (x=random note)
|  x   mute note
| +x   volume swell (x=random note)
|  b   bend
|  r   release bend
|  d   tremolo bar dip (lower the pitch of the note w/ whammy bar)
|  T   right hand tapping (indicated above the tab)
|  .   palm mute (indicated below the tab)
--------------------------------------------------------
comments
We did not receive enough feedback on this tab! Please rate:
print report bad tab
1 2 3 4 5
I want to post or [tab]
guest
You may want to rate the tab now too:
select rating
Please do not post tabs as comments. Select "correction" instead!