Oops, an error
Loading. Please wait.

British Steel Tab

10,229 views 27 this week
3 commentsread comments
1 2 3 4 5
excellent!
x 5
add to favorites launch autoscroll
font size
0
reset
Autoscroll
+/-
esc
set tempo
stop
Difficulty
intermediate
WARNING: You are trying to view
                                    content from Ultimate-Guitar.com
                                    in an unauthorized application,
                                    which is prohibited.

                                    Please use an official Ultimate
                                    Guitar Tabs application for iPhone,
                                    iPad or Android to access legitimate
                                    chords, guitar, bass, and drum tabs
                                    from Ultimate-Guitar.com database.

                                    Type "ultimate guitar tabs" in Apple
                                    App Store's or Android Market's
                                    search to find the application.
        Judas priest  - british steel  ALBUM

1. breaking the law
2. rapid fire
3. metal gods
4. grinder
5. united
6. living after midnight
7. you don’t have to be old to be wise
8. the rage
9. steeler



TABLATURE LEGEND
----------------
 h   - hammer-on
 p   - pull-off
 b   - bend
 pb  - pre-bend
 r   - bend release (if no number after the r, then release immediately)
 /\  - slide into or out of (from/to "nowhere")
 s   - legato slide
 S   - shift slide
  - natural harmonic
[n]  - artificial harmonic
n(n) - tapped harmonic
 ~   - vibrato
 tr  - trill
 T   - tap
 TP  - trem. picking
 PM  - palm muting
\n/  - tremolo bar dip; n = amount to dip
 \n  - tremolo bar down
 n/  - tremolo bar up
/n\  - tremolo bar inverted dip
 =   - hold bend; also acts as connecting device for hammers/pulls
 <>  - volume swell (louder/softer)
 x   - on rhythm slash represents muted slash
 o   - on rhythm slash represents single note slash
 |  - bar
||  - double bar
||o - repeat start
o|| - repeat end
*|  - double bar (ending)
 :  - bar (freetime)
 $  - Segno



1 BREAKING THE LAW

Tuning: Standard EADGBE
Riff 1: guitar 1
E---------------------------|---------------------------|
B---------------------------|---------------------------|
G---------------------------|---------------------------|
D---------------------------|---------------------------|
A--0--2--3--0-2--3--0-2--3--|--------0-------0----3--2--|
E---------------------------|--1--3-----1-3-----3-------|

Guitar 2
E---------------------------|---------------------------|
B---------------------------|---------------------------|
G--2--4--5--2-4--5--2-4--5--|--------2-------2----5--4--|
D---------------------------|--3--5-----3-5-----5-------|
A---------------------------|---------------------------|
E---------------------------|---------------------------|

Repeat till the verse
Riff 1 (X2)




Verse 1:
E-----------------------|----------------------|
B-----------------------|----------------------|
G--2--------------------|--5-----------2-------|
D--2--------------------|--5-----5-----2-------|
A--0--------------------|--3-----5-----0-------|
E-----------------------|--------3-------------|

E-----------------------|----------------------|
B-----------------------|----------------------|
G--2--------------------|--5-----------2-------|
D--2--------------------|--5-----5-----2-------|
A--0--------------------|--3-----5-----0-------|
E-----------------------|--------3-------------|
Riff Pre chorus  1 & 2

E-----------------------|----------------------|
B-----------------------|----------------------|
G-----------------------|--5-------------------|
D--3--------------------|--5-------------------|
A--3--------------------|--3-------------------|
E--1--------------------|----------------------|

E-----------------------|----------------------|
B-----------------------|----------------------|
G-----------------------|----------------------|
D--3--------------------|--2-------------------|
A--3--------------------|--2-------------------|
E--1--------------------|--0-------------------|

Chorus:
Chorus:
   Breaking the law    Breaking the law
E-------------------|-----------------------|
B-------------------|-----------------------|
G-------------------|-----------------------|
D-------------------|-----------------------|
A--0-0-0-0-0-0-0-0--|--0-0-0-0-0-0-0-0------|
E-------------------|-----------------------|

   Breaking the law    Breaking the law
E-------------------|--------------------|
B--10---------------|----------------10--|
G---9---------------|-----------------9--|
D-------------------|--------------------|
A------0-0-0-0-0-0--|--0-0-0-0-0-0-0-----|
E-------------------|--------------------|

Breaking the law    Breaking the law
E-------------------|-------------------|
B--10---------------|-------------------|
G---9---------------|-------------------|
D-------------------|-------------------|
A------0-0-0-0-0-0--|--0-0-0-0-0-0-0-0--|
E-------------------|-------------------|

   Breaking the law    Breaking the law
E-------------------|--------------------|
B--10---------------|----------------10--|
G---9---------------|-----------------9--|
D-------------------|--------------------|
A------0-0-0-0-0-0--|--0-0-0-0-0-0-0-----|
E-------------------|--------------------|

Verse 2:
E-----------------------|----------------------|
B-----------------------|----------------------|
G--2--------------------|--5-----------2-------|
D--2--------------------|--5-----5-----2-------|
A--0--------------------|--3-----5-----0-------|
E-----------------------|--------3-------------|

The riff change of notes 
E - C D E




E-----------------------|----------------------|
B-----------------------|----------------------|
G--2--------------------|--5-----7-----9-------|
D--2--------------------|--5-----7-----9-------|
A--0--------------------|--3-----5-----7-------|
E-----------------------|----------------------|


Pre chorus (1 & 2)
Repeat
                                   
Riff 2:
E-------------------------|
B-------------------------|
G-------------------------|
D--4---------4------------|
A--2---------2---0--0--0--|
E-------------------------|

Riff 3:
      You don't know what it's...
E----------------|---------------|
B----------------|---------------|
G---7------------|--10-----5-----|
D---7------------|--10-----5-----|
A---5------------|--8------3-----|
E----------------|---------------|   repeat riff 3 (x2)
....like
E----------------|---------------|
B----------------|---------------|
G---7------------|--10-----12----|
D---7------------|--10-----12----|
A---5------------|--8------10----|
E----------------|---------------|

Riff 1: guitar 1 repeat  fade out 
E---------------------------|---------------------------|
B---------------------------|---------------------------|
G---------------------------|---------------------------|
D---------------------------|---------------------------|
A--0--2--3--0-2--3--0-2--3--|--------0-------0----3--2--|
E---------------------------|--1--3-----1-3-----3-------|

Guitar 2
E---------------------------|---------------------------|
B---------------------------|---------------------------|
G--2--4--5--2-4--5--2-4--5--|--------2-------2----5--4--|
D---------------------------|--3--5-----3-5-----5-------|
A---------------------------|---------------------------|
E---------------------------|---------------------------|

Other guitar played

Guitar 2
E---------------------------|----------------------------|
B---------------------------|----------------------------|
G---------------------------|----------------------------|
D-7-7-7-7-7-7-7-7-7-7-7-7-7-|-3-3-3-3-3-3--5-5-5-5-5-5-5-|
A-7-7-7-7-7-7-7-7-7-7-7-7-7-|-3-3-3-3-3-3--5-5-5-5-5-5-5-|
E-5-5-5-5-5-5-5-5-5-5-5-5-5-|-1-1-1-1-1-1--3-3-3-3-3-3-3-|


2 rapid fire 
Intro Pm ………………………………………………………………………………………………………………………………………………………
E|-----------------------------------------------------------------|
B|-----------------------------------------------------------------|
G|-----------------------------------------------------------------|
D|-----------------------------------------------------------------|
A|-0-0-0-0-0-0-0-0-0-0-0-0-0-0-0-0-0-0-0-0-0-0-0-0-0-0-0-0-0-0-0-0-|
E|-----------------------------------------------------------------|
play this twice...its all just a bunch of open A notes.


Verse
E|--------------------------------------------------------------------------|
B|--------------------------------------------------------------------------|
G|-5-------------------------------2----2--5---2-----2---2----2--5---2--0-2-|
D|-5-------------------------------2--5-2--5---2--5--2---2--5-2--5---2--5-2-|
A|-3-3-3-3-3-3-3-3-3-3-3-3-3-3-3-3-0--5-0--3---0--5--0---0--5-0--3---0--5-0-|(x2)
E|------------------------------------3-----------3---------3-----------3---|
play twice

then
E|---------------------------------------------------|
B|---------------------------------------------------|
G|--------------------------------2----2--5---2----2-|
D|-5------------------------------2--5-2--5---2--5-2-|
A|-5------------------------------0--5-0--3---0--5-0-|(x2)
E|-3-3-3-3-3-3-3-3-3-3-3-3-3-3-3-----3-----------3---|
play twice all 

then repeat the whole thing for the next verse

Pre-bridge
E|------------------------|
B|--------8---7-8---------|
G|-9-7-9--7---7-7---9-7-9-|
D|-9-7-9------------9-7-9-|
A|-7-5-7------------7-5-7-|
E|------------------------|
play this three times

end Pre-bridge
E|------------------------------------------|
B|------------------------------------------|
G|-11-12--9-11-12--9-11-12--9-11-12--9-7====|
D|-11-12--9-11-12--9-11-12--9-11-12--9-7====|
A|--9-10--7--9-10--7--9-10--7--9-10--7-5====|
E|------------------------------------------|

Bridge
E|---------------------------------|
B|---------------------------------|
G|---------------------------------|
D|---------------------------------|
A|-7p5---7p5---7p5---7p5---7p5-7p5-| reapeat all part of solos in the verser
E|---------------------------------|
repeat many times

E|-------------------------|
B|-------------------------|
G|-------------------------|solos riff
D|-7-----------------------|
A|-7-----------------------| X4
E|-5-----------------------|

then play the verse again and end song

3 METAL GODS
RIFF 1
e|-----------------------------|------------------|-----------------------------|-----|
B|-----------------------------|------------------|-----------------------------|-----|
G|--9---9-9--9--9-9---7-7-7-7--|--9---9-9--9--9~--|--9---9-9--9--9-9---7-7-7-7--|--9--|
D|--9---9-9--9--9-9---7-7-7-7--|--9---9-9--9--9~--|--9---9-9--9--9-9---7-7-7-7--|--9--|
A|--7---7-7--7--7-7---5-5-5-5--|--7---7-7--7--7~--|--7---7-7--7--7-7---5-5-5-5--|--7--|
E|-----------------------------|------------------|-----------------------------|-----|

E|-----------------------------|-----|
B|-----------------------------|-----|
G|--9---9-9--9--9-9---7-7-7-7--|--9--|
D|--9---9-9--9--9-9---7-7-7-7--|--9--| REPEAT INTRO AND THE WHILE VERSE
A|--7---7-7--7--7-7---5-5-5-5--|--7--|
E|-----------------------------|-----|

PRE CHORUS RIFF 2
E-----------------------------------|
B-----------------------------------|
G-----------------------------------|
D---------------------------------4-|
A-2h4-444-44-2h4-444-44-2h4-444-4-2-|
E-0h2-222-22-0h2-222-22-0h2-222-2---|
       "Marching in the streets..."

E-----------------------------------|   REPEAT ALL PRE CHORUS 
B-----------------------------------|   x2
G-----------------------------------|
D-----------------------------------|
A-2h4-444-44-2h4-444-44-2h4-444-4-2-|
E-0h2-222-22-0h2-222-22-0h2-222-2-0-|

BACK AGAIN THE VERSER 
AND REPEAR RIFF 2

CHORUS

e|--------------|-----------------|
B|--------------|-----------------|
G|-----------7--|--------------7--| x2
D|--5----5---7--|--5--5--------7--|
A|--5----5---5--|--5--5--------5--|
E|--3----3------|--3--3--3--5-----|

   SOLO GLENN TIPTON     
e|------------------------|-------------------------|
B|------------------------|-------------------------|
G|--4b--4--------1---2----|----------2h4p2---2h4/6--|
D| ---------4--2-------4~-|------2h4-------4--------|
A|------------------------|--2h4--------------------|
E|------------------------|-------------------------|

e|----------------------------|------14---------------------------17b-|
B|--------2-2-5----2----------|--~14----17-17b--17-14-17-14-14-14-----|
G|--2h4-4-------2h4--4-2h4p2--|---------------------------------------|
D|----------------------------|---------------------------------------|
A|----------------------------|---------------------------------------|
E|----------------------------|---------------------------------------|

e|--17-14-17p14-----14--------------|--12--------------------|--------|
B|--------------17-----17b--17-12b--|------10--9--10p9h---9--|--12~~~-|
G|----------------------------------|------------------11----|--------|
D|----------------------------------|------------------------|--------|
A|----------------------------------|------------------------|--------|
E|----------------------------------|------------------------|--------|
REPET THE RIFF 3
RIFF 1 AND 2 
RIFF 2 FADE OUT


4 GRINDER

Tuning: Standard EADGBE 

GLEN AND KK GUITAR THANK’S TO Wolfe

Gtrs I, III
|------------|---------------|------------|--------------|
|------------|---------------|------------|--------------|
|-2---2---2--|--2----5-5-4---|-2---2---2--|--2----5-5-4--|
|-2---2---2--|--2--5-5-5-4-5-|-2---2---2--|--2--5-5-5-4--|
|-0---0---0--|--0--5-------5-|-0---0---0--|--0--5--------|
|------------|---------------|------------|--------------|


  
|------------|--------------|------------|--------------|
|------------|--------------|------------|--------------|
|-2---2---2--|--2----5-5-4--|-2---2---2--|--2----5-5-4--|
|-2---2---2--|--2--5-5-5-4--|-2---2---2--|--2--5-5-5-4--|
|-0---0---0--|--0--5--------|-0---0---0--|--0--5--------|
|------------|--------------|------------|--------------|





 1st Verse
  
|------------|--------------|------------|--------------|
|------------|--------------|------------|--------------|
|-2---2---2--|--2----5-5-4--|-2---2---2--|--2----5-5-4--|
|-2---2---2--|--2--5-5-5-4--|-2---2---2--|--2--5-5-5-4--|
|-0---0---0--|--0--5--------|-0---0---0--|--0--5--------|
|------------|--------------|------------|--------------|


  
|------------|--------------|------------|--------------|
|------------|--------------|------------|--------------|
|------------|-------5-5-4--|-2---2---2--|--2----5-5-4--|
|-5---5---5--|--5--5-5-5-4--|-2---2---2--|--2--5-5-5-4--|
|-5---5---5--|--5--5--------|-0---0---0--|--0--5--------|
|-3---3---3--|--3-----------|------------|--------------|


 
|------------|--------------|------------|--------------|
|------------|--------------|------------|--------------|
|-2---2---2--|--2----5-5-4--|-2---2---2--|--2----5-5-4--|
|-2---2---2--|--2--5-5-5-4--|-2---2---2--|--2--5-5-5-4--|
|-0---0---0--|--0--5--------|-0---0---0--|--0--5--------|
|------------|--------------|------------|--------------|


  
|------------|--------------|------------|--------------|
|------------|--------------|------------|--------------|
|------------|-------5-5-4--|-2---2---2--|--2----5-5-4--|
|-5---5---5--|--5--5-5-5-4--|-2---2---2--|--2--5-5-5-4--|
|-5---5---5--|--5--5--------|-0---0---0--|--0--5--------|
|-3---3---3--|--3-----------|------------|--------------|


 Chorus
  
             PM-----------------------|
|------------------|---------------------|-----------------|
|------------------|---------------------|-----------------|
|------------------|---------------------|------------2----|
|-2---4-(4)--------|---------------------|-2---4-(4)--2-4--|
|-2---4-(4)--------|---------------------|-2---4-(4)--0-4--|
|-0---2-(2)--0--0--|-0---0--0--0---0--0--|-0---2-(2)----2--|


                        
        PM----------|               PM-----------------------|
|----------------------|------------------|---------------------|
|----------------------|------------------|---------------------|
|----------------------|------------------|---------------------|
|-(4)------------------|-2---4-(4)--------|---------------------|
|-(4)------------------|-2---4-(4)--------|---------------------|
|-(2)---0--0--0--0--0--|-0---2-(2)--0--0--|-0---0--0--0---0--0--|


                               2nd Verse
  
|----------------|------------|------------|--------------|
|----------------|------------|------------|--------------|
|------------2---|------------|-2---2---2--|--2----5-5-4--|
|-2---4-(4)--2-4-|-(4)--------|-2---2---2--|--2--5-5-5-4--|
|-2---4-(4)--0-4-|-(4)--------|-0---0---0--|--0--5--------|
|-0---2-(2)----2-|-(2)--------|------------|--------------|


 
|------------|--------------|------------|--------------|
|------------|--------------|------------|--------------|
|-2---2---2--|--2----5-5-4--|------------|-------5-5-4--|
|-2---2---2--|--2--5-5-5-4--|-5---5---5--|--5--5-5-5-4--|
|-0---0---0--|--0--5--------|-5---5---5--|--5--5--------|
|------------|--------------|-3---3---3--|--3-----------|


 

 
|-------------------|-----------------------------|-------------|
|-------------------|-----------------------------|-------------|
|-2---2-----2-------|-----2--------5--5---4-------|-2---2---2---|
|-2---2-----2-------|-----2-----5--5--5---4-------|-2---2---2---|
|-0---0-----0-------|-----0-----5-----------------|-0---0---0---|
|-------------------|-----------------------------|-------------|
|
| Gtr II
| ~                       ~~~~~~~~~~~~              ~
|-------------------|-----------------------------|-------------|
|-------------------|-----------------------------|-------------|
|-7-----7-5---------|-----5-(5)---(5)-7p5---------|-------------|
|-----------7p5h7p5h|=7p5-----------------7p5---5h|=7-----------|
|-------------------|-------------------------7---|-------------|
|-------------------|-----------------------------|-------------|


  
|--------------|------------|--------------|------------|
|--------------|------------|--------------|------------|
|--2----5-5-4--|-2---2---2--|--2----5-5-4--|------------|
|--2--5-5-5-4--|-2---2---2--|--2--5-5-5-4--|-5---5---5--|
|--0--5--------|-0---0---0--|--0--5--------|-5---5---5--|
|--------------|------------|--------------|-3---3---3--|


                                            2nd Chorus
   
                                                        PM-|
|--------------|------------|--------------|--------------------|
|--------------|------------|--------------|--------------------|
|-------5-5-4--|-2---2---2--|--2----5-5-4--|--------------------|
|--5--5-5-5-4--|-2---2---2--|--2--5-5-5-4--|-2---4-(4)----------|
|--5--5--------|-0---0---0--|--0--5--------|-2---4-(4)----------|
|--3-----------|------------|--------------|-0---2-(2)--0--0----|


                       
  PM---------------|                           PM----------|
|---------------------|----------------|------------------------|
|---------------------|----------------|------------------------|
|---------------------|------------2---|------------------------|
|---------------------|-2---4-(4)--2-4-|-(4)--------------------|
|---------------------|-2---4-(4)--0-4-|-(4)--------------------|
|-0---0--0--0---0--0--|-0---2-(2)----2-|-(2)---0--0--0--0--0----|


 
             PM-----------------------|
|------------------|---------------------|-----------------|
|------------------|---------------------|-----------------|
|------------------|---------------------|------------2----|
|-2---4-(4)--------|---------------------|-2---4-(4)--2-4--|
|-2---4-(4)--------|---------------------|-2---4-(4)--0-4--|
|-0---2-(2)--0--0--|-0---0--0--0---0--0--|-0---2-(2)----2--|


              Guitar Solo
               
|------------|------------------|-------------------------------|
|------------|------------------|-------------------------------|
|------------|-2-----2-----2----|------2---------5---5------4---|
|-(4)--------|-2-----2-----2----|------2-----5---5---5------4---|
|-(4)--------|-0-----0-----0----|------0-----5------------------|
|-(2)--------|------------------|-------------------------------|
|
| Gtr II
|




                                                       ~~
|------------|------------------|--------------------8----------|
|------------|-7b9---7b9---7b9--|-10p8-----------8p5---10-(10)--|
|------------|------------------|------9p7p5h7p5----------------|
|------------|------------------|-------------------------------|
|------------|------------------|-------------------------------
|------------|------------------|-------------------------------|





|--------------------------------|
|--------------------------------|
|-2------------2--------2--------|
|-2------------2--------2--------|
|-0------------0--------0--------|
|--------------------------------|
|
|--------------------------------|
|---10p8-----------8-------------|
|--------9p7h9---9---9-(9)-7h8p7-|
|--------------------------------|
|--------------------------------|
|--------------------------------|


                              
|------------------------------|--------------------------|
|------------------------------|--------------------------|
|-----2-----------5---5----4---|--------------------------|
|-----2-------5---5---5----4---|--5---5-------------5-----|
|-----0-------5----------------|--5---5-------------5-----|
|------------------------------|--3---3-------------3-----|
|
|                       ~         ~~
|------------------------------|-10-----(10)--------8-----|
|------------------------------|-------------8h10p8---10--|
|-5h7p5---5---7p5--------------|--------------------------|
|-------7---7-----7p5h7--------|--------------------------|
|------------------------------|--------------------------|
|-----------------------5-(5)--|--------------------------|


     
|---------------------|------------------------|----------------------|
|---------------------|------------------------|----------------------|
|--------------5-5-4--|--2--------2-----2------|-----2---------5-5-4--|
|------5-----5-5-5-4--|--2--------2-----2------|-----2-----5---5-5-4--|
|------5-----5--------|--0--------0-----0------|-----0-----5----------|
|------3--------------|------------------------|----------------------|
|
|---------------------|------------------------|----------------------|
|-(10)---8------------|----------10---8---10---|-8---8----------------|
|----------9----------|--------9----9---9----9-|---9---9p8h9-9p7------|
|---------------------|-11b13------------------|----------------------|
|---------------------|------------------------|----------------------|
|---------------------|------------------------|----------------------|


 
|-------------------------------------------------|
|-------------------------------------------------|
|--2-----------------2-----------------2----------|
|--2-----------------2-----------------2----------|
|--0-----------------0-----------------0----------|
|-------------------------------------------------|
|
|-12h15----------15----------15----------15-------|
|-------17p16h17----17p16h17----17p16h17----17p16h|
|-------------------------------------------------|
|-------------------------------------------------|
|-------------------------------------------------|
|-------------------------------------------------|


|---------------------------------|
|---------------------------------|
|--------2-----------------5-5-4--|
|--------2-----------5-----5-5-4--|
|--------0-----------5------------|
|---------------------------------|
|
|----15---------------------------|
|-17----17p16h17p16p15h17---------|
|-------------------------17------|
|---------------------------------|
|---------------------------------|
|---------------------------------|



|----------------------------------|
|----------------------------------|
|-2------------2--------2----------|
|-2------------2--------2----------|
|-0------------0--------0----------|
|----------------------------------|
|
|---12--13h15p13p12p10-13h15p13h15p|
|----------------------------------|
|----------------------------------|
|----------------------------------|
|----------------------------------|
|----------------------------------|


                              
|---------------------------|---------------------|
|---------------------------|---------------------|
|--------2----------5--5-4--|---------------------|
|--------2-------5--5--5-4--|--5------5----5------|
|--------0-------5----------|--5------5----5------|
|---------------------------|--3------3----3------|
|
|              ~~~~~~~~
|-13p12p10p8p7p5---(5)------|-18b20-------18------|
|---------------------------|----------------20---|
|---------------------------|---------------------|
|---------------------------|---------------------|
|---------------------------|---------------------|
|---------------------------|---------------------|


   
|--------------------------------------|
|--------------------------------------|
|-------------------5-----5---4--------|
|----5----------5---5-----5---4--------|
|----5----------5----------------------|
|----3---------------------------------|
|
|-18---15-(15)-13-(13)-15---(15)-------|
|--------------------------------13h15-|
|--------------------------------------|
|--------------------------------------|
|--------------------------------------|
|--------------------------------------|


 
|-------------------------------------------------|-------------------------|
|-------------------------------------------------|-------------------------|
|--2-----------------2-----------------2----------|--------2----------------|
|--2-----------------2-----------------2----------|--------2----------------|
|--0-----------------0-----------------0----------|--------0----------------|
|-------------------------------------------------|-------------------------|
|
|-13----------13----------13----------10-13-------|-------13-(13)--(13)-----|
|----15p13p11----15p13p11----15p13p11-------15-13-|-13-15-------------------|
|-------------------------------------------------|-------------------------|
|-------------------------------------------------|-------------------------|
|-------------------------------------------------|-------------------------|
|-------------------------------------------------|-------------------------|


 Bridge
   
|----------------|---------------|-----------------|---------------|
|----------------|---------------|-----------------|---------------|
|----------------|---------------|-----------------|---------------|
|---2--(2)-2-2-3-|-4--4-4-4--4-4-|-4--2--(2)-2-2-3-|-4--4-4-4--4-4-|
|---2--(2)-2-2-3-|-4--4-4-4--4-4-|-4--2--(2)-2-2-3-|-4--4-4-4--4-4-|
|---0--(0)-0-0-1-|-2--2-2-2--2-2-|-2--0--(0)-0-0-1-|-2--2-2-2--2-2-|





 
|-----------------|---------------|-----------------|------------------------|
|-----------------|---------------|-----------------|------------------------|
|----2--(2)-------|---------------|-----------------|------------------------|
|-4--2--(2)-4-4-3-|-2--2-2-2--2-2-|-2--2--(2)-3-2-3-|-4--4-4-4-------4---4---|
|-4--0--(0)-4-4-3-|-2--2-2-2--2-2-|-2--2--(2)-3-2-3-|-4--4-4-4-------4---4---|
|-2---------2-2-1-|-0--0-0-0--0-0-|-0--0--(0)-1-0-1-|-2--2-2-2-------2---2---|
|
| Gtr II
|-----------------|---------------|-----------------|------------------------|
|-----------------|---------------|-----------------|------------------------|
|-----------------|---------------|-----------------|------------------------|
|-----------------|---------------|-----------------|-9------7h9p7h9p7h9p7h9-|
|-----------------|---------------|-----------------|------------------------|
|-----------------|---------------|-----------------|------------------------|


  
|-----------------|---------------|-----------------|---------------|
|-----------------|---------------|-----------------|---------------|
|-----------------|---------------|-----------------|---------------|
|-4--2--(2)-3-2-3-|-4--4-4-4--4-4-|-4--2--(2)-2-2-3-|-4--4-4-4--4-4-|
|-4--2--(2)-3-2-3-|-4--4-4-4--4-4-|-4--2--(2)-2-2-3-|-4--4-4-4--4-4-|
|-2--0--(0)-1-0-1-|-2--2-2-2--2-2-|-2--0--(0)-0-0-1-|-2--2-2-2--2-2-|


  
|-------------------|---------------|-----------------|---------------------|
|-------------------|---------------|-----------------|---------------------|
|----2---(2)--------|---------------|-----------------|---------------------|
|-4--2---(2)4--4--3-|-2--2-2-2--2-2-|-2--2--(2)-3-2-3-|-4--4-4-4------4---4-|
|-4--0---(0)4--4--3-|-2--2-2-2--2-2-|-2--2--(2)-3-2-3-|-4--4-4-4------4---4-|
|-2---------2--2--1-|-0--0-0-0--0-0-|-0--0--(0)-1-0-1-|-2--2-2-2------2---2-|
|
| Gtr II
|-------------------|---------------|-----------------|------------------12-|
|-------------------|---------------|-----------------|----------12-(12)----|
|-------------------|---------------|-----------------|---------------------|
|-9----7h=9p7-(7)---|---------------|-----------------|---------------------|
|-------------------|-7-------------|-----------------|---------------------|
|-------------------|---------------|-----------------|---------------------|


                      3rd Verse
  
|--------------------|------------|--------------|------------|
|--------------------|------------|--------------|------------|
|--------------------|-2---2---2--|--2----5-5-4--|-2---2---2--|
|---4------------2-4-|-2---2---2--|--2--5-5-5-4--|-2---2---2--|
|---4------------2-4-|-0---0---0--|--0--5--------|-0---0---0--|
|---2------------0-2-|------------|--------------|------------|
|
|                ~~
|-(12)----(12)-------|------------|--------------|------------|
|---------------12---|------------|--------------|------------|
|--------------------|------------|--------------|------------|
|--------------------|------------|--------------|------------|
|--------------------|------------|--------------|------------|
|--------------------|------------|--------------|------------|


  
|--------------|------------|--------------|------------|
|--------------|------------|--------------|------------|
|--2----5-5-4--|-2---2---2--|--2----5-5-4--|-2---2---2--|
|--2--5-5-5-4--|-2---2---2--|--2--5-5-5-4--|-2---2---2--|
|--0--5--------|-0---0---0--|--0--5--------|-0---0---0--|
|--------------|------------|--------------|------------|


   
|---------------------|-------------|--------------|------------|
|---------------------|-------------|--------------|------------|
|---2---------5-5--4--|-------------|-------5-5-4--|-2---2---2--|
|---2------5--5-5--4--|--5---5---5--|--5--5-5-5-4--|-2---2---2--|
|---0------5----------|--5---5---5--|--5--5--------|-0---0---0--|
|---------------------|--3---3---3--|--3-----------|------------|
|
| Gtr II
|                       

|---------------------|-------------|--------------|------------|
|---------------------|-------------|--------------|------------|
|---------------------|-------------|--------------|------------|
|--10-(10)---10---10--|-------------|--------------|------------|
|---------------------|-10----------|--------------|------------|
|---------------------|-------------|--------------|------------|


   
|--------------|------------|--------------|------------|
|--------------|------------|--------------|------------|
|--2----5-5-4--|-2---2---2--|--2----5-5-4--|-2---2---2--|
|--2--5-5-5-4--|-2---2---2--|--2--5-5-5-4--|-2---2---2--|
|--0--5--------|-0---0---0--|--0--5--------|-0---0---0--|
|--------------|------------|--------------|------------|


     
|------------------------|-------------|--------------|------------------------|
|------------------------|-------------|--------------|------------------------|
|----2-------5-5-4-------|-------------|-------5-5-4--|-2--------2------2------|
|----2----5--5-5-4-------|--5---5---5--|--5--5-5-5-4--|-2--------2------2------|
|----0----5--------------|--5---5---5--|--5--5--------|-0--------0------0------|
|------------------------|--3---3---3--|--3-----------|------------------------|
|
| Gtr II
|                           ~~
|------------------------|-------------|--------------|------------------------|
|-15---15---15-----15p13-|-------------|--------------|-8----------------------|
|------------------------|-12----------|--------------|----9-12----------------|
|------------------------|-------------|--------------|---------10h12--10h12---|
|------------------------|-------------|--------------|------------------------|
|------------------------|-------------|--------------|------------------------|

                                 Out-Chorus
     
                                                PM-------------------------|
|--------------------------------|---------------------|---------------------|
|--------------------------------|---------------------|---------------------|
|-----2---------5--5--4----------|---------------------|---------------------|
|-----2-----5---5--5--4----------|--2----4--(4)--------|---------------------|
|-----0-----5--------------------|--2----4--(4)--------|---------------------|
|--------------------------------|--0----2--(2)--0--0--|-0---0--0--0---0--0--|
|
|           ~~~~~~~                      ~~~~~~~
|--------------------------------|-12---12-(12)--------|---------------------|
|--------------------------------|---------------------|---------------------|
|--------------------------------|---------------------|---------------------|
|-10----10h12-(12)---12p10-------|---------------------|---------------------|
|----12--------------------12p10-|---------------------|---------------------|
|--------------------------------|---------------------|---------------------|


 
                         PM----------|               PM-|
|----------------|----------------------|------------------|
|----------------|----------------------|------------------|
|------------2---|----------------------|------------------|
|-2---4-(4)--2-4-|-(4)------------------|-2---4-(4)--------|
|-2---4-(4)--0-4-|-(4)------------------|-2---4-(4)--------|
|-0---2-(2)----2-|-(2)---0--0--0--0--0--|-0---2-(2)--0--0--|


                        
  PM---------------|
|---------------------|----------------|-----------|
|---------------------|----------------|-----------|
|---------------------|------------2---|-----------|
|---------------------|-2---4-(4)--2-4-|-(4)-------|
|---------------------|-2---4-(4)--0-4-|-(4)-------|
|-0---0--0--0---0--0--|-0---2-(2)----2-|-(2)-------|


  
             


                    PM-------------------------|
|---------------------|---------------------|-----------------|
|---------------------|---------------------|-----------------|
|---------------------|---------------------|------------2----|
|--2----4--(4)--------|---------------------|-2---4-(4)--2-4--|
|--2----4--(4)--------|---------------------|-2---4-(4)--0-4--|
|--0----2--(2)--0--0--|-0---0--0--0---0--0--|-0---2-(2)----2--|
|
| Gtr II
|-12---12-(12)--------|---------------------|-----------------|
|---------------------|---------------------|-----------------|
|---------------------|---------------------|-----------------|
|---------------------|---------------------|-----------------|
|---------------------|---------------------|-----------------|
|---------------------|---------------------|-----------------|

5 United 
Tuning :stándar E



Opening-riff:
E---------------------|---------------------|
B---------------------|---------------------|
G---------------------|---------------------|
D---------------------|---------------------|
A--2--4-------4-------|--2--4-------4-------|
E--0--2---X-X-2-------|--0--2---X-X-2-------|

E---------------------|---------------------|
B---------------------|---------------------|
G---------------------|---------------------|
D---------------------|---------------------|
A--7--4-------4-------|--7--4-------4-------|
E--5--2---X-X-2-------|--5--2---X-X-2-------|

Riff 1:
E----------------------------|
B----------------------------|
G----------------------------|
D----------------------------|
A--2--4---4---4---4----------|
E--0--2---2---2---2---2-2-2--|

E----------------------------|
B----------------------------|
G----------------------------|
D----------------------------|
A--7--4---4---4---4----------|
E--5--2---2---2---2---2-2-2--|





Riff 2:
E----------------------------|
B----------------------------|
G----------------------------|
D--2--4---4---4---4----------|
A--0--2---2---2---2---2-2-2--|
E----------------------------|

E----------------------------|
B----------------------------|
G----------------------------|
D--2--4---4-----2------------|
A--0--2---2-----0-----2------|
E---------------------0------|

Riff 3:
Gonna keep on driving Never stop
E------------------|------------------|
B------------------|------------------|
G--2---------------|--4-------6-------|
D--2---------------|--4-------6-------|
A--0---------------|--2-------4-------|
E------------------|------------------|

Chorus:
United, united, united we stand
E------------------------------|
B------------------------------|
G---------6------4------6------|
D--4------6------4------6------|
A--4------4------2------4------|
E--2---------------------------|

United we never shall fall
E------------------------------|
B------------------------------|
G--3--------6---------4--------|
D--4--------6---------4--------|
A--4--------4---------2--------|
E--2---------------------------|

Songstructure:
Opening-riff (2 times)
Riff 1 (4 times)
Riff 2
Riff 1
Riff 3
Bridge
Chorus (2 times)
Riff 1 (2 times)
Riff 2
Riff 1
Riff 3
Bridge
Chorus (2 times)
Drum-bridge
Chorus (2 times)(Vocals only)
Chorus (Fade out)

Thanks to “the seven son”

6 Living after midnight

chorus: 
e|----------------------------|
B|----------------------------|
G|---9-9--7-------------------|     
D|---9-9--7--7-7-7--9---9-----|
A|---7-7--5--7-7-7--9---9-----|               x2
E|-----------5-5-5--7---7-----|

e|--------------------------------------|
B|--------------------------------------|
G|----9-9--7----------------------------|
D|----9-9--7--7-7-7--9-9--9---9-9--9----|
A|----7-7--5--7-7-7--9-9--9---9-9--9----|
E|------------5-5-5--7-7--7---7-7--7----|
 Verse 1 and 2
   
 E5                                PM-----------|    PM-----------|   
E|-----------------|-----------------|-----------------|-----------------|
B|-----------------|-----------------|-----------------|-----------------|
G|---9---9---9---9-|---9---9---9---12|-----------------|---------------9-|
D|---9---9---9---9-|---9---9---9---12|-----------------|---------------9-|
A|---7---7---7---7-|---7---7---7---10|---2-2-2-2-2-2---|---2-2-2-2-2-2-7-|
E|-----------------|-----------------|---0-0-0-0-0-0-3-|---0-0-0-0-0-0---|
|
|                                                                      E5
E|-----------------|-----------------|-----------------|-----------------|
B|-----------------|-----------------|-----------------|-----------------|
G|-----------------|-----------------|-----------------|-----------------|
D|-----------------|---------------5-|---------------5-|---------------9-|
A|-----------------|---------------5-|---------------5-|---------------7-|
E|---0---0---0---0-|---0---0---0---3-|---0-0-0-0-0-0-3-|---0-0-0-0-0-0-0-|

Pre chorus 
e|-----------------------------|
B|-----------------------------|
G|--------------------4---7----|
D|--5--------4--------4---7----|
A|--5--------4--------2---5----|
E|--3--------2-----------------|
chorus: 

e|----------------------------|
B|----------------------------|
G|---9-9--7-------------------|     
D|---9-9--7--7-7-7--9---9-----|
A|---7-7--5--7-7-7--9---9-----|          x2
E|-----------5-5-5--7---7-----|

E|--------------------------------------|
B|--------------------------------------|
G|----9-9--7----------------------------|
D|----9-9--7--7-7-7--9-9--9---9-9--9----|
A|----7-7--5--7-7-7--9-9--9---9-9--9----|
E|------------5-5-5--7-7--7---7-7--7----|

presolo

e|-----------------------------------------------|
B|----3-3---3-3-3--------------------------------|
G|--2-2-2-2-2-2-2-2-9----------------------------|     x3
D|--2-0-0-2-0-0-0-2-9-------------5--------------|
A|--0-----0-------0-7-------------5--------------|
E|--------------------0-0-0-0-0-0-3-0-0-0-0-0-0--|

e|-----------------------------------|
B|----3-3---3-3-3--------------------|
G|--2-2-2-2-2-2-2-2-9---4---7---4----|
D|--2-0-0-2-0-0-0-2-9---4---7---4----|
A|--0-----0-------0-7---2---5---2----|
E|-----------------------------------|

Solo: (Which is overdubbed. The other two guitars play the chorus) 

E|-----------------------------|---------------------------|
B|-----------------------------|---------------------------|
G|-14^16---14^16---14-12-------|---------------11----11^13-|
D|-----------------------14-12-|-14---14-12-14----14-------|
A|-----------------------------|---------------------------|
E|-----------------------------|---------------------------|

  Hold bend     Release
E|------------------------|-------------------|
B|------------------------|-------------------|
G|----11--11-11-11--------|--------------11---|
D|--------PH-PH-PH--14~~~~|------------14--14-|
A|------------------------|-------------------|
E|------------------------|-------------------|




E|-----------------------------|---------------------------|
B|-----------------------------|---------------------------|
G|-14^16---14^16---14-12-------|---------------------/////-|
D|-----------------------14-12-|-14---14-12-14-12-14\------|
A|-----------------------------|---------------------------|
E|-----------------------------|---------------------------|
       
     
E|---------22----------------------|
B|---22^24---22(24)r22-20-22^24~~~~|
G|---------------------------------|
D|---------------------------------|
A|---------------------------------|
E|---------------------------------|

Repeat all until the chorus 
play chorus til end

7 you don’t have to be old to be wise
YOU DON'T HAVE TO BE OLD TO BE WISE
Written by Glenn Tipton, Rob Halford and K.K. Downing.
Performed by JUDAS PRIEST.
Taken from the album BRITISH STEEL.


Riff 1:
E-------------------|-------------------------|
B----------------8--|----------------8---8-7--|
G------9-----9---7--|------9-----9---7---7-7--|
D------7-----7---7--|------7-----7---7---7-7--|
A--0-0-----0--------|--0-0-----0--------------|
E-------------------|-------------------------|

Riff 2 (Verse-riff):
E-------------------|--2------------------|
B--2----------------|--3------------------|
G--2----------------|--2------------------|
D--2----------------|--0------------------|
A--0----------------|---------------------|
E-------------------|---------------0--3--|

E-------------------|--2-----3---3---3-2--|
B--2----------------|--3---3-3---3---3-3--|
G--2----------------|--2---2-2---2---2-2--|
D--2----------------|--0---0--------------|
A--0----------------|---------------------|
E-------------------|---------------------|

Chorus-riff:
I grow sick and tired of the same old lies
E-----------------------|----------------------|
B-----------------------|----------------------|
G-----------------------|-------------7--------|
D--2-------2------------|--5----------7--------|
A--2-------2------------|--5----------5--------|
E--0-------0-----0-1-2--|--3-------------------|

Might look a little young So what's wrong
E----------------------|---------------------|
B----------------------|---------------------|
G----------------------|---------------------|
D--2-------------------|--2------------------|
A--2-------------------|--2------------------|
E--0-------------------|--0-----------0-1-2--|

You don't have to be old to be wise
E-----------------|--------------------|
B-----------------|--------------------|
G-----------------|--7------5----------|
D--5--------------|--7------5----------|
A--5--------------|--5------3----------|
E--3--------------|--------------------|

Songstructure:
Riff 1(6 times)
Riff 2(6 times)
Chorus
Riff 1(2 times)
Riff 2(4 times)
Chorus
Riff 1(2 times)
Riff 2(4 times)(Solo)
Chorus
Riff 1(Fade out)
Tune Gtr to E


8 The rage
  JUDAS PRIEST - THE RAGE
  From the Album BRITISH STEEL

Standar tuning

Riff A clean
|--------------------------------
--------------|
|--1010--1010--8-8--8-8--6-6--6-6--8-8--8-8----|
|--9-9---9-9---7-7--7-7--5-5--5-5--7-7--7-7----|Gtr 
|----------------------------------------------| I
|----------------------------------------------|
|----------------------------------------------|
|                                              |
|----------------------------------------------|
|----------------------------------------------|
|--9-----------12--------5---------7-----------|Gtr 
|--7-----------10--------3---------5-----------| II
|----------------------------------------------|
|----------------------------------------------|

Riff B
|----------------------------------------|
|----------------------------------------|
|--2--5-----------------2--5--7-7--5-----|
|--2--5-----------------2--5--7-7--5-----|
|--0--3------------3----0--3--5-5--3-----|
|--------0-2-3-5-3-----------------------|

Riff C.1                                                                   
|---------------------------|
|---------------------------|
|---------------------------|
|--7----5----3----2---3/5---| 
|--7----5----3----2---3/5---|
|--5----3----1----0---1/3---|

Riff C.2
|----------------------------|
|----------------------------|
|------------5----7----9-----|
|--7----5----5----7----9-----|
|--7----5----3----5----7-----|
|--5----3--------------0-----|

Riff D
|----------------------------|
|----------------------------|
|--7----5----3----2---3/5----|
|--7----5----3----2---3/5----|
|--5----3----1----0---1/3----|
|----------------------------|


9 Steeler
Tune Gtr to E

Thank to Transcribed by: RENE C.






Riff A
|-----------------------------------------|
|-----------------------------------------|
|----9-9-99-7-9----9-9-999-777------------| 
|----9-9-99-7-9----9-9-999-777------------| 
|----7-7-77-5-7----7-7-777-555------------|
|--0-------------0------------------------|

Riff B                                                                    
|----------------------------------|
|----------------------------------|
|-----7-----7-----7--9---7---------| 
|--9--7--9--7--9--7--9---7---------| 
|--9--5--9--5--9--5--7---5---------|
|--7-----7-----7-------------------|

Riff C
|-------------------------------|
|-------------------------------|
|--6--9--6--9--6--9--11---------|
|--6--9--6--9--6--9--11---------|
|--4--7--4--7--4--7--9----------|
|-------------------------------|

Riff D
|----------------------------------------|
|----------------------------------------|
|-------------------------------- 4------| 
|--4---4---4---4---4-2------------4------| 
|--2---2---2---2---2-0---END WITH 2------|
|----0---0---0---0-----------------------|

Riff E
|-------------------------------------|
|----------------------7-- 2----------|
|----------------------7---2---4------|
|----------------------7---2---4------|
|--222222222222222222--5---0---2------|
|-------------------------------------|

Riff F
|-------------------------------------|
|-------------------------------------|
|----------------------12---7---9-----|
|----------------------12---7---9-----|
|--777777777777777777--10---5---7-----|
|-------------------------------------|

Riff G
|-----------------------------|
|-----------------------------|
|-----------------------------|
|----------------------9-9----|
|--5----5----5----5----7-7----|
|----00---00---00---00--------|

All the song in this album was made for other guitar players not for me
I only changes the part’s that i thing will be sound better thanks all the 
metalmaniacs and long live judas priest 
Made :ju.da.s
Metalgod.jp@hotmail.com
comments
print report bad tab
3 comments total.
+1 reply
BaptizedinFire wrote on July 19 2010, 08:19 pm

Nice job, I don't agree with everything but at least like 90%, so It's 5 stars from me. I won't bother making any corrections, because everything on here makes sense musically.

0 reply
ju.da.sguitar wrote on July 20 2010, 01:28 am

yes i did the tab thanks i know me too i dont agree but i thing that the importan is the all the people will learn the album

0 reply
AllJudasPriest wrote on July 20 2010, 10:34 am

What is the sense of uploading this without the lead for Steeler? I am working on that song as we speak. Everything but the solos are done, including the vocals.

I want to post or [tab]
guest
You may want to rate the tab now too:
select rating
Please do not post tabs as comments. Select "correction" instead!