Oops, an error
Loading. Please wait.

Burn In Hell Bass Tab

ver1
ver1

Whole song

Interactive

More versions @911Tabs.com
770 views 3 this week
no commentswrite comment
1 2 3 4 5
accurate
x 1
Autoscroll
+/-
esc
set tempo
stop
Difficulty
Tuning
intermediate
D# G# C# F# A# D#
WARNING: You are trying to view
                                    content from Ultimate-Guitar.com
                                    in an unauthorized application,
                                    which is prohibited.

                                    Please use an official Ultimate
                                    Guitar Tabs application for iPhone,
                                    iPad or Android to access legitimate
                                    chords, guitar, bass, and drum tabs
                                    from Ultimate-Guitar.com database.

                                    Type "ultimate guitar tabs" in Apple
                                    App Store's or Android Market's
                                    search to find the application.
Band :judas priest
Song :burn in hell
Album jugulator
bass : ian hill

Copyright (c)  (CBS) (1997)
Version 1.0 - (

Duration Legend
---------------
W - whole
H - half
Q - quarter
E - 8th
S - 16th
T - 32nd
X - 64th
. - note dotted
|-n-|  - n-tuplets


B ||-------|-------|-------|-------|-------|-----------------------|------------------------|
F#||-------|-------|-------|-------|-------|-----------------------|------------------------|
C#||-------|-------|-------|-------|-------|-----------------------|------------------------|
G#||-------|-------|-------|-------|-------|--0----0----0----x--0--|-----0----0--1--0--3----|
D#||-------|-------|-------|-------|-------|-----------------------|------------------------|


  Q    Q    Q    E  E     E  Q    E  E  E  Q       Q    Q    Q    E  E     E  Q    E  E  
 Q
-----------------------|------------------------|-----------------------|------------------------|
-----------------------|------------------------|-----------------------|------------------------|
-----------------------|------------------------|-----------------------|------------------------|
--0----0----0----x--0--|-----0----0--1--0--3----|--0----0----0----x--0--|-----0----0--1--0--3----|
-----------------------|------------------------|-----------------------|------------------------|


  Q    Q    Q    E  E     E  Q    E  E  E  Q       Q    Q    Q    E  E     E  Q    E  E  
 Q
-----------------------|------------------------|-----------------------|------------------------|
-----------------------|------------------------|-----------------------|------------------------|
-----------------------|------------------------|-----------------------|------------------------|
--0----0----0----x--0--|-----0----0--1--0--3----|--0----0----0----x--0--|-----0----0--1--0--3----|
-----------------------|------------------------|-----------------------|------------------------|


  Q    Q    Q    E  E     E  Q    E  E  E  Q       Q    Q    Q    E  E     E  Q    E  E  
 Q
-----------------------|------------------------|-----------------------|------------------------|
-----------------------|------------------------|-----------------------|------------------------|
-----------------------|------------------------|-----------------------|------------------------|
--0----0----0----x--0--|-----0----0--1--0--3----|--0----0----0----x--0--|-----0----0--1--0--3----|
-----------------------|------------------------|-----------------------|------------------------|


  Q    Q    Q    E  E     E  Q    E  E  E  Q       Q    Q    Q    E  E     E  Q    E  E  
 Q
-----------------------|------------------------|-----------------------|------------------------|
-----------------------|------------------------|-----------------------|------------------------|
-----------------------|------------------------|-----------------------|------------------------|
--0----0----0----x--0--|-----0----0--1--0--3----|--0----0----0----x--0--|-----0----0--1--0--3----|
-----------------------|------------------------|-----------------------|------------------------|


  Q    Q    Q    E  E     E  Q    E  E  E  Q       E  E  E  E  E  E  E  E     E  E  E  E 
E  E  E  E
-----------------------|------------------------|-------------------------|----------------------|
-----------------------|------------------------|-------------------------|----------------------|
-----------------------|------------------------|-------------------------|----------------------|
--0----0----0----x--0--|-----0----0--1--0--3----|-------------------------|----------------------|
-----------------------|------------------------|-----0--0--0----0--0--0--|---0--0--0-----0--0--0|


  E  E  E  E  E  E  E  E     E  E  E  E  E  E  E  E     E  E  E  E  E  E  E  E
--------------------------|--------------------------|--------------------------|
--------------------------|--------------------------|--------------------------|
--------------------------|--------------------------|--------------------------|
--------------------------|--------------------------|--------------------------|
-----0--0--0-----0--0--0--|-----0--0--0-----0--0--0--|-----0--0--0-----0--0--0--|


  E  E  E  E  E  E  E  E                   Q    E  E  E  E  E  E     E  S S E  E  E  E  E E
--------------------------|-----|-----|-------------------------|---------------------------|
--------------------------|-----|-----|-------------------------|---------------------------|
--------------------------|-----|-----|-------------------------|---------------------------|
--------------------------|-----|-----|-------------------------|---------------------------|
-----0--0--0-----0--0--0--|-----|-----|--0----0--1--0--2--3--4--|--0--0-0-0--1--0--2--3--3--|


  Q    E  E  E  E  E  E     E  S S E  E  E  E  E  E     Q.     Q    E  Q       Q    Q    E E  E  E
-------------------------|---------------------------|--------------------|----------------------|
-------------------------|---------------------------|--------------------|----------------------|
-------------------------|---------------------------|--------------------|----------------------|
-------------------------|---------------------------|------------1-------|---------------1------|
--0----0--1--0--2--3--4--|--0--0-0-0--1--0--2--3--3--|--0----0-------0----|--0----0----0-----0--3|


  Q.     Q    E  Q       Q    E  E  E  E  E  E     E  E  E  E  E  E  E  E     E  E  E  E 
E  E  E  E
---------------------|-----------------------|--------------------------|------------------------|
---------------------|-----------------------|--------------------------|------------------------|
---------------------|-----------------------|--------------------------|------------------------|
-------------1-------|--------------1--------|-----------------1--------|-----------------1------|
-0------0-------0----|--0--0--0--0-----0--3--|--0--0--0--0--0-----0--0--|--0--0--0--0--0-----0--3|


  E  E  E  E  E  E  E  E     E  E  E  E  E  E  E  E     E  E  E  E  E  E  E  E
--------------------------|--------------------------|--------------------------|
--------------------------|--------------------------|--------------------------|
--------------------------|--------------------------|--------------------------|
-----------------1--------|-----------------1--------|-----------------1--------|
--0--0--0--0--0-----0--0--|--0--0--0--0--0-----0--3--|--0--0--0--0--0-----0--0--|


  E  E  E  E  E  E  E  E     E  E  E  E  E  E  E  E     E  E  E  E  E  E  E  E     Q.    
Q    E  Q
--------------------------|--------------------------|--------------------------|-----------------|
--------------------------|--------------------------|--------------------------|-----------------|
--------------------------|--------------------------|--------------------------|-----------------|
-----------------1--------|-----------------1--------|-----------------1--------|-----------1-----|
--0--0--0--0--0-----0--3--|--0--0--0--0--0-----0--0--|--0--0--0--0--0-----0--3--|--0---0-------0--|


  Q    Q    E  E  E  E     Q.     Q    E  Q       Q    E  E  E  E  E  E     E  E  E  E  E E  E  E
------------------------|--------------------|-------------------------|--------------------------|
------------------------|--------------------|-------------------------|--------------------------|
------------------------|--------------------|-------------------------|--------------------------|
---------------1--------|------------1-------|----------------1--------|-----------------1--------|
--0----0----0-----0--3--|--0----0-------0----|--0----0--0--0-----0--3--|--0--0--0--0--0-----0--0--|


  E  E  E  E  E  E  E  E     E  E  E  E  E  E  E  E     E  E  E  E  E  E  E  E
--------------------------|--------------------------|--------------------------|
--------------------------|--------------------------|--------------------------|
--------------------------|--------------------------|--------------------------|
-----------------1--------|-----------------1--------|-----------------1--------|
--0--0--0--0--0-----0--3--|--0--0--0--0--0-----0--0--|--0--0--0--0--0-----0--3--|


  E  E  E  E  E  E  E  E     E  E  E  E  E  E  E  E     E  E  E  E  E  E  E  E
--------------------------|--------------------------|--------------------------|
--------------------------|--------------------------|--------------------------|
--------------------------|--------------------------|--------------------------|
-----------------1--------|-----------------1--------|-----------------1--------|
--0--0--0--0--0-----0--0--|--0--0--0--0--0-----0--3--|--0--0--0--0--0-----0--0--|


  E  E  E  E  E  E  E  E     Q.     Q    E  Q       Q    Q    E  E  E  E     Q.     Q    
 Q
--------------------------|----------------------|------------------------|----------------------|
--------------------------|----------------------|------------------------|----------------------|
--------------------------|----------------------|------------------------|----------------------|
-----------------1--------|--------------1-------|---------------1--------|--------------1-------|
--0--0--0--0--0-----0--3--|--0------0-------0----|--0----0----0-----0--3--|--0------0-------0----|


  Q    E  E  E  E  E  E     Q    E   E  E  E  E  E     E  E  E  E  E  E  E  E
-------------------------|--------------------------|--------------------------|
-------------------------|--------------------------|--------------------------|
-------------------------|--------------------------|--------------------------|
----------------1--------|--------------------------|--------------------------|
--0----0--0--0-----0--3--|--6----L\--0--0--1--0--0--|--0--0--0--0--1--0--3--0--|


  Q    E   E  E  E  E  E     E  E  E  E  E  E  E  E     Q    E   E  E  E  E  E
--------------------------|--------------------------|--------------------------|
--------------------------|--------------------------|--------------------------|
--------------------------|--------------------------|--------------------------|
--------------------------|--------------------------|--------------------------|
--6----L\--0--0--1--0--0--|--0--0--0--0--1--0--3--0--|--6----L\--0--0--1--0--0--|


  E  E  E  E  E  E  E  E     E  Q.     H                 Q    E  E  E  E  E  E
--------------------------|---------------------|-----|-------------------------|
--------------------------|---------------------|-----|-------------------------|
--------------------------|---------------------|-----|-------------------------|
--------------------------|---------------------|-----|-------------------------|
--0--0--0--0--1--0--3--0--|--0------------------|-----|--0----0--1--0--2--3--4--|


  E  S S E  E  E  E  E  E     Q    E  E  E  E  E  E     E  S S E  E  E  E  E  E
---------------------------|-------------------------|---------------------------|
---------------------------|-------------------------|---------------------------|
---------------------------|-------------------------|---------------------------|
---------------------------|-------------------------|---------------------------|
--0--0-0-0--1--0--2--3--3--|--0----0--1--0--2--3--4--|--0--0-0-0--1--0--2--3--3--|


  Q    E  E  E  E  E  E     E  S S E  E  E  E  E  E     Q    E  E  E  E  E  E
-------------------------|---------------------------|-------------------------|
-------------------------|---------------------------|-------------------------|
-------------------------|---------------------------|-------------------------|
-------------------------|---------------------------|-------------------------|
--0----0--1--0--2--3--4--|--0--0-0-0--1--0--2--3--3--|--0----0--1--0--2--3--4--|


  E  S S E  E  E  E  E  E     E  E  E  E  E  E  E  E     E  E  E  E  E  E  E  E
---------------------------|--------------------------|--------------------------|
---------------------------|--------------------------|--------------------------|
---------------------------|--------------------------|--------------------------|
---------------------------|-----------------1--------|-----------------1--------|
--0--0-0-0--1--0--2--3--3--|--0--0--0--0--0-----0--0--|--0--0--0--0--0-----0--3--|


  E  E  E  E  E  E  E  E     E  E  E  E  E  E  E  E     E  E  E  E  E  E  E  E
--------------------------|--------------------------|--------------------------|
--------------------------|--------------------------|--------------------------|
--------------------------|--------------------------|--------------------------|
-----------------1--------|-----------------1--------|-----------------1--------|
--0--0--0--0--0-----0--0--|--0--0--0--0--0-----0--3--|--0--0--0--0--0-----0--0--|


  E  E  E  E  E  E  E  E     E  E  E  E  E  E  E  E     E  E  E  E  E  E  E  E     W
--------------------------|--------------------------|--------------------------|-----------------|
--------------------------|--------------------------|--------------------------|-----------------|
--------------------------|--------------------------|--------------------------|-----------------|
-----------------1--------|-----------------1--------|-----------------1--------|-----------------|
--0--0--0--0--0-----0--3--|--0--0--0--0--0-----0--0--|--0--0--0--0--0-----0--3--|--0--------------|

                  Q    E   E  E  E  E  E     E  E  E  E  E  E  E  E     Q    E   E  E  E 
E  E
-------|-------|--------------------------|--------------------------|--------------------------|
-------|-------|--------------------------|--------------------------|--------------------------|
-------|-------|--------------------------|--------------------------|--------------------------|
-------|-------|--------------------------|--------------------------|--------------------------|
-------|-------|--6----L\--0--0--1--0--0--|--0--0--0--0--1--0--3--0--|--6----L\--0--0--1--0--0--|


  E  E  E  E  E  E  E  E     Q    E   E  E  E  E  E     E  E  E  E  E  E  E  E     E  Q. 
   H
--------------------------|--------------------------|--------------------------|-----------------|
--------------------------|--------------------------|--------------------------|-----------------|
--------------------------|--------------------------|--------------------------|-----------------|
--------------------------|--------------------------|--------------------------|-----------------|
--0--0--0--0--1--0--3--0--|--6----L\--0--0--1--0--0--|--0--0--0--0--1--0--3--0--|--0--------------|


                         PM                           PM                           PM
        E  E   E  E  E   E  E  E     E  E   E  E  E   E  E  E     E  E   E  E  E   E  E  E
-----|----------------------------|----------------------------|----------------------------|
-----|----------------------------|----------------------------|----------------------------|
-----|----------------------------|----------------------------|----------------------------|
-----|----------------------------|----------------------8--7--|----------------------------|
-----|--0--5b--3--0--5b--3--5--3--|--0--5b--3--0--5b--0--------|--0--5b--3--0--5b--3--5--3--|


                                                  PM                           PM
                     |-3-|
  E  E   E  E  E  E  S S S E     E  E   E  E  E   E  E  E     E  E   E  E  E   E  E  E
------------------------------|----------------------------|----------------------------|
------------------------------|----------------------------|----------------------------|
------------------------------|----------------------------|----------------------------|
------------------8--7-8-7----|----------------------------|----------------------8--7--|
--0--5b--3--0--6-----------1--|--0--5b--3--0--5b--3--5--3--|--0--5b--3--0--5b--0--------|


                   PM
                                                  |-3-|
  E  E   E  E  E   E  E  E     E  E   E  E  E  E  S S S E     Q    E   E  E  E  E  E
----------------------------|------------------------------|--------------------------|
----------------------------|------------------------------|--------------------------|
----------------------------|------------------------------|--------------------------|
----------------------------|------------------8--7-8-7----|--------------------------|
--0--5b--3--0--5b--3--5--3--|--0--5b--3--0--6-----------1--|--6----L\--0--0--1--0--0--|


  E  E  E  E  E  E  E  E     Q    E   E  E  E  E  E     E  E  E  E  E  E  E  E
--------------------------|--------------------------|--------------------------|
--------------------------|--------------------------|--------------------------|
--------------------------|--------------------------|--------------------------|
--------------------------|--------------------------|--------------------------|
--0--0--0--0--1--0--3--0--|--6----L\--0--0--1--0--0--|--0--0--0--0--1--0--3--0--|


  Q    E   E  E  E  E  E     E  E  E  E  E  E  E  E     Q    E   E  E  E  E  E
--------------------------|--------------------------|--------------------------|
--------------------------|--------------------------|--------------------------|
--------------------------|--------------------------|--------------------------|
--------------------------|--------------------------|--------------------------|
--6----L\--0--0--1--0--0--|--0--0--0--0--1--0--3--0--|--6----L\--0--0--1--0--0--|


  E  E  E  E  E  E  E  E     Q    E   E  E  E  E  E     E  E  E  E  E  E  E  E
--------------------------|--------------------------|--------------------------|
--------------------------|--------------------------|--------------------------|
--------------------------|--------------------------|--------------------------|
--------------------------|--------------------------|--------------------------|
--0--0--0--0--1--0--3--0--|--6----L\--0--0--1--0--0--|--0--0--0--0--1--0--3--0--|


  Q    E   E  E  E  E  E     E  E  E  E  E  E  E  E
--------------------------|--------------------------|-------|-------|-------||
--------------------------|--------------------------|-------|-------|-------||
--------------------------|--------------------------|-------|-------|-------||
--------------------------|--------------------------|-------|-------|-------||
--6----L\--0--0--1--0--0--|--0--0--0--0--1--0--3--0--|-------|-------|-------||

.  - palm mute           /  - slide up to
\  - slide down to       ~  - vibrato
h  - hammer on           b  - Bend
p  - pull off            Suffixes for bend
t  - tap                 f  - full bend    h - half bend
ph - pinched harmonic    q  - quarter bend t - tap bend
*  - see comment         ^  - Hold bend    r release bend
x  - Stuccatto           ~  - vibrato bend
,  - slight palm mute    () - ghost note, sustained note
"  - tremolo note        <> - Trill
comments
We did not receive enough feedback on this tab! Please rate:
print report bad tab
1 2 3 4 5
I want to post or [tab]
guest
You may want to rate the tab now too:
select rating
Please do not post tabs as comments. Select "correction" instead!