Oops, an error
Loading. Please wait.

Cathedral Spires Tab

ver1
ver1

Whole song

Interactive

More versions @911Tabs.com
4,774 views 15 this week
no commentswrite comment
1 2 3 4 5
excellent!
x 4
add to favorites launch autoscroll
font size
0
reset
Autoscroll
+/-
esc
set tempo
stop
Contributor
Difficulty
advanced
WARNING: You are trying to view
                                    content from Ultimate-Guitar.com
                                    in an unauthorized application,
                                    which is prohibited.

                                    Please use an official Ultimate
                                    Guitar Tabs application for iPhone,
                                    iPad or Android to access legitimate
                                    chords, guitar, bass, and drum tabs
                                    from Ultimate-Guitar.com database.

                                    Type "ultimate guitar tabs" in Apple
                                    App Store's or Android Market's
                                    search to find the application.
#----------------------------------PLEASE NOTE---------------------------------#
#This file is the author's own work and represents their interpretation of the #
#song. You may only use this file for private study, scholarship, or research. #
#------------------------------------------------------------------------------#

CATHEDRAL SPIRES
As recorded by Judas Priest
(From the 1997 Album JUGULATOR)
Note: Listen to record for exact rhythm

Transcribed by Pete Billmann, Colin Higgins, and Paul Pappas
POsted by Iron Pete
 Words and Music by Glenn Tipton and K.K. Downing
Arranged by Bryan Mackintosh
 

Gtr I (C F Bb Eb G C) - 'Untitled'
Gtr II (C F Bb Eb G C) - 'Untitled'
Gtr III (C F Bb Eb G C) - 'Untitled'
Gtr IV (C F Bb Eb G C) - 'Untitled'
Gtr V (C F Bb Eb G C) - 'Untitled'
Gtr VI (C F Bb Eb G C) - 'Untitled'


 Intro
  Moderately Slow Q=85
  A5    F5     C5      D5    G5         A5    F5       C5      D5    GsusAsus4
 4/4
  Gtr IV
  E E e E  E E E E   E E E E E E  E E   E E E  E  E  E E E   E E E E E E Q
|------------------|------------------|--------------------|---------------|
|------------------|------------------|--------------------|---------------|
|-----2------0-----|-0-----0----------|-----2-------10-----|-5-----7-------|
|---2-----10-----5-|-----7------------|---2------10------5-|-----7---5-7-7\|
|-0-----8------3---|---5-------5------|-0-----/8-------3---|---5-----3-5-5\|
|------------------|---------3---/8-7-|--------------------|---------3-5-5\|
|
| Gtr V
| W                  W                  W                    H       E E Q
|------------------|------------------|--------------------|---------------|
|------------------|------------------|--------------------|---------------|
|------------------|------------------|--------------------|---------------|
|------------------|------------------|--------------------|---------5-7-7\|
|------------------|------------------|--------------------|---------3-5-5\|
|------------------|------------------|--------------------|---------3-5-5\|


  A5    F5     C5      D5    G5         A5    F5       C5      D5    G  C5B5
  E E E E  E E E E   E E E E E E  E E   E E E  E  E  E E E   E E E E Q  E E
|------------------|------------------|--------------------|---------------|
|------------------|------------------|--------------------|---------------|
|-----2------0-----|-0-----0----------|-----2-------10-----|-5-----7-------|
|---2-----10-----5-|-----7------------|---2------10------5-|-----7---------|
|-0-----8------3---|---5-------5------|-0-----/8-------3---|---5--------3-2|
|------------------|---------3---/8-7-|--------------------|---------3-----|
|
| E E E E  E E Q     E E E E Q    Q     E E E  E  E  E E E   E E E E Q  E E
|------------------|------------------|--------------1-0---|---------------|
|-------0--1---3---|---0-1------------|--------0--1------1-|---0-1---------|
|-----2------2-----|-2-----0----------|-----2--------------|-2-----2-------|
|---2--------------|------------------|---2----------------|------------5-4|
|-0----------------|---------2---/7---|-0------------------|---------2-----|
|------------------|------------------|--------------------|---------------|


  A5           F5            C5          D5    G5
  Gtr VI
   E   E   E   E  +H                +H         E E  E E
   |   |   |   |   |                 |         | |  | |
   o   o   o   o   /                 /         o o  o o

  Gtr IV
   E   E   E   E   E     E   E E     E   E E E E E  E E
|--------------------------------|----------------------|
|--------------------------------|----------------------|
|----------2-------------0-------|---0-------0----------|
|------2----------10-----------5-|---------7------------|
|--0-----------8-------------3---|-------5-------5------|
|--------------------------------|-------------3---/8-7-|
|
| Gtr V
|  E   E   E   E   E     E   Q       E   E E E Q    Q
|--------------------------------|----------------------|
|--------------0---1---------3---|-------0-1------------|
|----------2-------------2-------|---2-------0----------|
|------2-------------------------|----------------------|
|--0-----------------------------|-------------2---/7---|
|--------------------------------|----------------------|
|
| Gtrs II, III
|  \1______________/
|  Q      +Q      +E    +Q.         +H.             Q
|-<5>----(<5>)---(<5>)-(<5>)-----|-(<5>)----------------|
|-<5>----(<5>)---(<5>)-(<5>)-----|-(<5>)----------------|
|--------------------------------|----------------------|
|--------------------------------|----------------------|
|--------------------------------|----------------------|
|--------------------------------|----------------------|


  A5         F5           C5         D5    GsusAsus4
   E     Q     E   +H             W
   |     |     |    |
   o     o     o    /

   E     E E   E    E   E E E     E  E E E E E Q
|-----------------------------|--------------------||
|-----------------------------|--------------------||
|----------2-----------10-----|---5------7---------||
|--------2---------10-------5-|--------7---5-7-7\--||
|--0----------/8----------3---|------5-----3-5-5\--||
|-----------------------------|------------3-5-5\--||
|
|  E     E E   E    E   E E E     E  E E E E E Q
|-----------------------1-0---|--------------------||
|--------------0----1-------1-|------0-1-----------||
|----------2------------------|---2------2---------||
|--------2--------------------|--------------------||
|--0--------------------------|------------3-5-5\--||
|-----------------------------|------------3-5-5\--||
|
|  \0.5_____________/
|  Q.         +E   +H            +W
|-12---------(12)-(12)--------|-(12)---------------||
|-12---------(12)-(12)--------|-(12)---------------||
|-----------------------------|--------------------||
|-----------------------------|--------------------||
|-----------------------------|--------------------||
|-----------------------------|--------------------||


 Verse
  A5    F5     C5      D5    G5
  E E E E  E E E E   E E E E E E  E E
|------------------|------------------|
|------------------|------------------|
|-----2------0-----|-0-----0----------|
|---2-----10-----5-|-----7------------|
|-0-----8------3---|---5-------5------|
|------------------|---------3---/8-7-|
|
| E E E E  E E Q     E E E E Q    Q
|------------------|------------------|
|-------0--1---3---|---0-1------------|
|-----2------2-----|-2-----0----------|
|---2--------------|------------------|
|-0----------------|---------2---/7---|
|------------------|------------------|
|
| W                  W
|------------------|------------------|
|------------------|------------------|
|------------------|------------------|
|------------------|------------------|
|------------------|------------------|
|------------------|------------------|


  A5    F5       C5      D5            G     C5B5
  E E E  E  E  E E E   E E  E        E   Q   E E
|--------------------|---------------------------|
|--------------------|---------------------------|
|-----2-------10-----|-5-------------7-----------|
|---2------10------5-|------7--------------------|
|-0-----/8-------3---|---5-------------------3-2-|
|--------------------|-------------------3-------|
|
| E E E  E  E  E E E   E E  E        E   Q   E E
|--------------1-0---|---------------------------|
|--------0--1------1-|---0--1--------------------|
|-----2--------------|-2-------------2-----------|
|---2----------------|-----------------------5-4-|
|-0------------------|-------------------2-------|
|--------------------|---------------------------|
|
|                           T
| W                    Q    H.
|--------------------|-----<5>-------------------|
|--------------------|-----10(15)b13---(10)------|
|--------------------|---------------------------|
|--------------------|---------------------------|
|--------------------|---------------------------|
|--------------------|---------------------------|
                       Q    Q           +H


  A5    F5     C5      D5    G5
  E E E E  E E E E   E E E E E E  E E
|------------------|------------------|
|------------------|------------------|
|-----2------0-----|-0-----0----------|
|---2-----10-----5-|-----7------------|
|-0-----8------3---|---5-------5------|
|------------------|---------3---/8-7-|
|
| E E E E  E E Q     E E E E Q    Q
|------------------|------------------|
|-------0--1---3---|---0-1------------|
|-----2------2-----|-2-----0----------|
|---2--------------|------------------|
|-0----------------|---------2---/7---|
|------------------|------------------|
|
| W                  W
|------------------|------------------|
|------------------|------------------|
|------------------|------------------|
|------------------|------------------|
|------------------|------------------|
|------------------|------------------|


  A5    F5       C5      D5        Gsus4   Asus4
  E E E  E  E  E E E   E E E  E      E   E Q
|--------------------|--------------------------|
|--------------------|--------------------------|
|-----2-------10-----|-5------7-----------------|
|---2------10------5-|-----7---------5---7-7\---|
|-0-----/8-------3---|---5-----------3---5-5\---|
|--------------------|---------------3---5-5\---|
|
| E E E  E  E  E E E   E E E  E      E   E Q
|--------------1-0---|--------------------------|
|--------0--1------1-|---0-1--------------------|
|-----2--------------|-2------2-----------------|
|---2----------------|--------------------------|
|-0------------------|---------------3---5-5\---|
|--------------------|---------------3---5-5\---|
|
| W                    Q   E.    S  +H
|--------------------|----------12-(12)/--------|
|--------------------|----------12-(12)/--------|
|--------------------|--------------------------|
|--------------------|--------------------------|
|--------------------|--------------------------|
|--------------------|--------------------------|


  A5    F5     C5      D5    G5
  E E E E  E E E E   E E E E E E  E E
|------------------|------------------|
|------------------|------------------|
|-----2------0-----|-0-----0----------|
|---2-----10-----5-|-----7------------|
|-0-----8------3---|---5-------5------|
|------------------|---------3---/8-7-|
|
| E E E E  E E Q     E E E E Q    Q
|------------------|------------------|
|-------0--1---3---|---0-1------------|
|-----2------2-----|-2-----0----------|
|---2--------------|------------------|
|-0----------------|---------2---/7---|
|------------------|------------------|
|
| W                  W
|------------------|------------------|
|------------------|------------------|
|------------------|------------------|
|------------------|------------------|
|------------------|------------------|
|------------------|------------------|


  A5    F5       C5      D5    G     C5  B5
  E E E  E  E  E E E   E E E E  Q     E  E
|--------------------|---------------------|
|--------------------|---------------------|
|-----2-------10-----|-5-----7-------------|
|---2------10------5-|-----7---------------|
|-0-----/8-------3---|---5------------3--2-|
|--------------------|----------3----------|
|
| E E E  E  E  E E E   E E E E  Q     E  E
|--------------1-0---|---------------------|
|--------0--1------1-|---0-1---------------|
|-----2--------------|-2-----2-------------|
|---2----------------|----------------5--4-|
|-0------------------|----------2----------|
|--------------------|---------------------|
|
|                               \2____/
| W                    H        H
|--------------------|---------------------|
|--------------------|---------10----------|
|--------------------|----------9----(9)---|
|--------------------|---------------------|
|--------------------|---------------------|
|--------------------|---------------------|
                       H        Q    +Q


  A5       F5     C5      D5    G5
    E  E E E  E E E E   E E E E E E  E E
|---------------------|------------------|
|---------------------|------------------|
|--------2------0-----|-0-----0----------|
|------2-----10-----5-|-----7------------|
|---0------8------3---|---5-------5------|
|---------------------|---------3---/8-7-|
|
|   E  E E E  E E Q     E E E E Q    Q
|---------------------|------------------|
|----------0--1---3---|---0-1------------|
|--------2------2-----|-2-----0----------|
|------2--------------|------------------|
|---0-----------------|---------2---/7---|
|---------------------|------------------|
|
|  +H         H         W
|---------------------|------------------|
|-(10)----------------|------------------|
|--(9)----------------|------------------|
|---------------------|------------------|
|---------------------|------------------|
|---------------------|------------------|
   +H         H


  A5    F5       C5      D5    GsusAsus4
  E E E  E  E  E E E   E E E E E E Q
|--------------------|-----------------|
|--------------------|-----------------|
|-----2-------10-----|-5-----7---------|
|---2------10------5-|-----7---5-7-7\--|
|-0-----/8-------3---|---5-----3-5-5\--|
|--------------------|---------3-5-5\--|
|
| E E E  E  E  E E E   E E E E E E Q
|--------------1-0---|-----------------|
|--------0--1------1-|---0-1-----------|
|-----2--------------|-2-----2---------|
|---2----------------|-----------------|
|-0------------------|---------3-5-5\--|
|--------------------|---------3-5-5\--|
|
| W                    W
|--------------------|-----------------|
|--------------------|-----------------|
|--------------------|-----------------|
|--------------------|-----------------|
|--------------------|-----------------|
|--------------------|-----------------|


  A5    F5     C5      D5    G5
  E E E E  E E E E   E E E E E E  E E
|------------------|------------------|
|------------------|------------------|
|-----2------0-----|-0-----0----------|
|---2-----10-----5-|-----7------------|
|-0-----8------3---|---5-------5------|
|------------------|---------3---/8-7-|
|
| E E E E  E E Q     E E E E Q    Q
|------------------|------------------|
|-------0--1---3---|---0-1------------|
|-----2------2-----|-2-----0----------|
|---2--------------|------------------|
|-0----------------|---------2---/7---|
|------------------|------------------|
|
| W                  W
|------------------|------------------|
|------------------|------------------|
|------------------|------------------|
|------------------|------------------|
|------------------|------------------|
|------------------|------------------|


  A5    F5       C5      D5            G  C5B5
  E E E  E  E  E E E   E E     E     E Q  E E
|--------------------|------------------------|
|--------------------|------------------------|
|-----2-------10-----|-5-------------7--------|
|---2------10------5-|---------7--------------|
|-0-----/8-------3---|---5----------------3-2-|
|--------------------|-----------------3------|
|
| E E E  E  E  E E E   E E     E     E Q  E E
|--------------1-0---|------------------------|
|--------0--1------1-|---0-----1--------------|
|-----2--------------|-2-------------2--------|
|---2----------------|--------------------5-4-|
|-0------------------|-----------------2------|
|--------------------|------------------------|
|
|                        T     T
| W                    E E     H.
|--------------------|---5(12)-5(10)----------|
|--------------------|---5(12)-5(10)----------|
|--------------------|------------------------|
|--------------------|------------------------|
|--------------------|------------------------|
|--------------------|------------------------|


  A5    F5     C5      D5    G5
  E E E E  E E E E   E E E E E E  E E
|------------------|------------------|
|------------------|------------------|
|-----2------0-----|-0-----0----------|
|---2-----10-----5-|-----7------------|
|-0-----8------3---|---5-------5------|
|------------------|---------3---/8-7-|
|
| E E E E  E E Q     E E E E Q    Q
|------------------|------------------|
|-------0--1---3---|---0-1------------|
|-----2------2-----|-2-----0----------|
|---2--------------|------------------|
|-0----------------|---------2---/7---|
|------------------|------------------|
|
| W                  W
|------------------|------------------|
|------------------|------------------|
|------------------|------------------|
|------------------|------------------|
|------------------|------------------|
|------------------|------------------|


  A5    F5       C5      D5             Gsus4       Asus4
  E E E  E  E  E E E   E  E     E   E     E     E   Q
|--------------------|----------------------------------|
|--------------------|----------------------------------|
|-----2-------10-----|-5------------7-------------------|
|---2------10------5-|----------7---------5-----7---7\--|
|-0-----/8-------3---|----5---------------3-----5---5\--|
|--------------------|--------------------3-----5---5\--|
|
| E E E  E  E  E E E   E  E     E   E     E     E   Q
|--------------1-0---|----------------------------------|
|--------0--1------1-|----0-----1-----------------------|
|-----2--------------|-2------------2-------------------|
|---2----------------|----------------------------------|
|-0------------------|--------------------3-----5---5\--|
|--------------------|--------------------3-----5---5\--|
|
|                         \5.5______/0____/     |
| W                    E  Q        +E    +E    +Q.
|--------------------|---<5>------(<5>)-(<5>)-(<5>)-----|
|--------------------|---<5>------(<5>)-(<5>)-(<5>)-----|
|--------------------|----------------------------------|
|--------------------|----------------------------------|
|--------------------|----------------------------------|
|--------------------|----------------------------------|


  A5    F5     C5      D5    G5
  Gtr IV
  E E E E  E E E E   E E E E E E  E E
|------------------|------------------|
|------------------|------------------|
|-----2------0-----|-0-----0----------|
|---2-----10-----5-|-----7------------|
|-0-----8------3---|---5-------5------|
|------------------|---------3---/8-7-|
|
| Gtr V
| E E E E  E E Q     E E E E Q    Q
|------------------|------------------|
|-------0--1---3---|---0-1------------|
|-----2------2-----|-2-----0----------|
|---2--------------|------------------|
|-0----------------|---------2---/7---|
|------------------|------------------|
|
| Gtr VI
| W                  W
|------------------|------------------|
|------------------|------------------|
|------------------|------------------|
|------------------|------------------|
|------------------|------------------|
|------------------|------------------|


  A5    F5       C5            D5          G       C5  B5
  E E E  E  E  E  E   E     E   E   E   E   Q       E  E
|------------------------|-------------------------------|
|------------------------|-------------------------------|
|-----2-------10---------|--5-----------7----------------|
|---2------10---------5--|----------7--------------------|
|-0-----/8--------3------|------5-------------------3--2-|
|------------------------|------------------3------------|
|
| E E E  E  E  E  E   E     E   E   E   E   Q       E  E
|--------------1--0------|-------------------------------|
|--------0--1---------1--|------0---1--------------------|
|-----2------------------|--2-----------2----------------|
|---2--------------------|--------------------------5--4-|
|-0----------------------|------------------2------------|
|------------------------|-------------------------------|
|
| H         Q     E   E     E   E   E   E   E   E   Q
|------------------------|-----<5>-----------------------|
|------------------------|-<5>-----<5>-----<5>-----------|
|--------------------<5>-|-------------<5>-----<5>-------|
|------------------------|-------------------------------|
|----------------<5>-----|-------------------------<5>---|
|------------------------|-------------------------------|


  A5        F5     C5      D5    G5
    E   E E E  E E E E   E E E E E E  E E
|----------------------|------------------|
|----------------------|------------------|
|---------2------0-----|-0-----0----------|
|-------2-----10-----5-|-----7------------|
|---0-------8------3---|---5-------5------|
|----------------------|---------3---/8-7-|
|
|   E   E E E  E E Q     E E E E Q    Q
|----------------------|------------------|
|-----------0--1---3---|---0-1------------|
|---------2------2-----|-2-----0----------|
|-------2--------------|------------------|
|---0------------------|---------2---/7---|
|----------------------|------------------|
|
|  +H          H         W
|----------------------|------------------|
|----------------------|------------------|
|----------------------|------------------|
|----------------------|------------------|
|-(<5>)----------------|------------------|
|----------------------|------------------|


  A5    F5       C5      D5    GsusAsus4
  E E E  E  E  E E E   E E E E E E Q
|--------------------|-----------------||
|--------------------|-----------------||
|-----2-------10-----|-5-----7---------||
|---2------10------5-|-----7---5-7-7\--||
|-0-----/8-------3---|---5-----3-5-5\--||
|--------------------|---------3-5-5\--||
|
| E E E  E  E  E E E   E E E E E E Q
|--------------1-0---|-----------------||
|--------0--1------1-|---0-1-----------||
|-----2--------------|-2-----2---------||
|---2----------------|-----------------||
|-0------------------|---------3-5-5\--||
|--------------------|---------3-5-5\--||
|
| W                    W
|--------------------|-----------------||
|--------------------|-----------------||
|--------------------|-----------------||
|--------------------|-----------------||
|--------------------|-----------------||
|--------------------|-----------------||


 Interlude
  Faster Q=105
  Eb5A5  Eb5A5  Eb5A5  Eb5A5  Eb5E5    BbE5
 4/4
  Gtrs I, II
     PM|    PM|    PM     PM|    PM--|   PM
   E E E  E E E  E E    E E E  E S S E E E
|--------------------|---------------------|
|--------------------|---------------------|
|--------------------|---------------------|
|-/8-----/8-----/8---|-/8-----/8-------3---|
|-/6-0-0-/6-0-0-/6-0-|-/6-0-0-/6-------1---|
|--------------------|-----------0-0-0---0-|


  Eb5A5  Eb5A5  Eb5A5  Eb5A5  Eb5E5    BbE5
     PM|    PM|    PM     PM|    PM--|   PM
   E E E  E E E  E E    E E E  E S S E E E
|--------------------|----------------------||
|--------------------|----------------------||
|--------------------|----------------------||
|-/8-----/8-----/8---|-/8-----/8-------3----||
|-/6-0-0-/6-0-0-/6-0-|-/6-0-0-/6-------1----||
|--------------------|-----------0-0-0---0--||


  $
  A5         G5A5Eb5   D5C5   A5              Eb5   D5
 6/4
                                    PM--|
  E E Q  +E  E E E +E  E Q    E E E S S E E E E +E  E  Q
|---------------------------|----------------------------------|
|---------------------------|----------------------------------|
|---------------------------|----------------------------------|
|-2---2--(2)-----8-(8)-7-5--|-2-----2-2-2-----8-(8)-7-[7]b7.5--|
|-0---0--(0)-5-7-6-(6)-5-3--|-0---0-0-0-0---0-6-(6)-5----------|
|---3--------3-5------------|---3---------3--------------------|


                                                            To Coda
  A5              Eb5   D5C5   A5                      Eb5     D5C5
  Gtr II
  Q   E E +H        +H         +Q.      S   S   H         +H
|----------------------------|--------------------------------------||
|----------------------------|--------------------------------------||
|----------------------------|---------<7>-<7>-<7>-------(<7>)------||
|-------2-(2)-------(2)------|-(2)----------------------------------||
|-------0-(0)-------(0)------|-(0)----------------------------------||
|----------------------------|--------------------------------------||
|
| Gtrs I, III
| E E E E +E  E E E +E  E Q     E  E E  E       E  E E E  +E   E Q
|----------------------------|--------------------------------------||
|----------------------------|--------------------------------------||
|----------------------------|--------------------------------------||
|-2---2-2-(2)---2-8-(8)-7-5--|--2----2---------------2-8--(8)--7-5--||
|-0---0-0-(0)---0-6-(6)-5-3--|--0----0---------------0-6--(6)--5-3--||
|---3---------3--------------|-----3---------------3----------------||


  Eb5E5  BbE5  BbE5  Eb5E5  BbE5
 4/4
  Gtr II
   W                  H       Q     E E
|------------------|--------------------|
|------------------|--------------------|
|------------------|--------------------|
|------------------|------------------8-|
|------------------|--------------------|
|------------------|--------------------|
|
| Gtr I
|  W                  H       Q     E E
|------------------|--------------------|
|------------------|--------------------|
|------------------|--------------------|
|------------------|--------------------|
|------------------|------------------1-|
|------------------|--------------------|
|
| Gtr III
|    PM|   PM|   PM     PM|   PM------|
|  E E E E E E E E    E E E E S S E E E
|------------------|--------------------|
|------------------|--------------------|
|------------------|--------------------|
|-/8-----3-----3---|-/8-----3-----------|
|-/6-----1-----1---|-/6-----1-----------|
|----0-0---0-0---0-|----0-0---0-0-0-0-0-|


  Eb5 E5   BbE5   BbE5  Eb5E5  BbE5
                                    ~~~
  +E  E  E E  E E E E    E E E E E +Q      +E
|---------------------|--------------------------||
|---------------------|--------------------------||
|-------10-9----------|----------9-(9)-----(9)\--||
|-(8)-9------10-9-----|--8-9-8-------------------||
|-----------------8-7-|--------7-----------------||
|---------------------|--------------------------||
|
|                                   ~~~
| +E  E  E E  E E E E    E E E E E +Q      +E
|---------------------|--------------------------||
|---------------------|--------------------------||
|---------------------|--------------------------||
|--------3-2----------|----------2-(2)-----(2)\--||
|-(1)-2-------3-2-----|--1-2-1-------------------||
|-----------------1-0-|--------0-----------------||
|
|     PM|     PM|   PM     PM|   PM--------|
|  E  E  E E  E E E E    E E E E E  E  S S  E
|---------------------|--------------------------||
|---------------------|--------------------------||
|---------------------|--------------------------||
|-/8-------3------3---|-/8-----3-----------------||
|-/6-------1------1---|-/6-----1-----------------||
|-----0--0----0-0---0-|----0-0---0--0--0-0--0----||


   Verse
    BbA5
    Gtrs I, II
      PM----|   PM------------|
    E S S S S E S S S S S S S S
||------------------------------|
||o-----------------------------|
||------------------------------|
||--3---------2-----------------|
||o-1-0-0-0-0-0-0-0-0-0-0-0-0-0-|
||------------------------------|


  BbA5                           BbA5
    PM----|   PM--------|          PM----|   PM------------|
  E S S S S E S S S S S S  E     E S S S S E S S S S S S S S
|------------------------------|-----------------------------|
|------------------------------|-----------------------------|
|------------------------------|-----------------------------|
|-3---------2-------------[7]\-|-3---------2-----------------|
|-1-0-0-0-0-0-0-0-0-0-0-6------|-1-0-0-0-0-0-0-0-0-0-0-0-0-0-|
|------------------------------|-----------------------------|


  BbA5                        Eb5A5      Eb5A5  Eb5A5
    PM----|   PM--------|        PM----|    PM|    PM----|
  E S S S S E S S S S S S E    E S S S S  E S S  E S S S S
|---------------------------|------------------------------|
|---------------------------|------------------------------|
|---------------------------|------------------------------|
|-3---------2---------------|-/8---------/8-----/8---------|
|-1-0-0-0-0-0-0-0-0-0-0-0-1-|-/6-0-0-0-0-/6-0-0-/6-0-0-0-0-|
|---------------------------|------------------------------|


  Eb5A5      Eb5E5      BbE5
     PM----|    PM------------|
   E S S S S  E S S S S S S S S
|---------------------------------|
|---------------------------------|
|---------------------------------|
|-/8---------/8-------------------|
|-/6-0-0-0-0-/6-------------------|
|---------------0-0-0-0-6-0-0-0---|


  BbA5
    PM----|   PM------------|
  E S S S S E S S S S S S S S
|-----------------------------|
|-----------------------------|
|-----------------------------|
|-3---------2-----------------|
|-1-0-0-0-0-0-0-0-0-0-0-0-0-0-|
|-----------------------------|


  BbA5                           BbA5
    PM----|   PM--------|          PM----|   PM------------|
  E S S S S E S S S S S S  E     E S S S S E S S S S S S S S
|------------------------------|------------------------------|
|------------------------------|------------------------------|
|------------------------------|------------------------------|
|-3---------2-------------[7]\-|-3---------2------------------|
|-1-0-0-0-0-0-0-0-0-0-0-6------|-1-0-0-0-0-0-0-0-0-0-0-0-0-0--|
|------------------------------|------------------------------|


  BbA5                        Eb5A5      Eb5A5  Eb5A5
    PM----|   PM--------|        PM----|    PM|    PM----|
  E S S S S E S S S S S S E    E S S S S  E S S  E S S S S
|---------------------------|------------------------------|
|---------------------------|------------------------------|
|---------------------------|------------------------------|
|-3---------2---------------|-/8---------/8-----/8---------|
|-1-0-0-0-0-0-0-0-0-0-0-0-1-|-/6-0-0-0-0-/6-0-0-/6-0-0-0-0-|
|---------------------------|------------------------------|


  Eb5A5      Eb5E5      BbE5
     PM----|    PM------------|
   E S S S S  E S S S S S S S S
|---------------------------------|
|---------------------------------|
|---------------------------------|
|-/8---------/8-------------------|
|-/6-0-0-0-0-/6-------------------|
|---------------0-0-0-0-6-0-0-0---|


  $$
  E5        D5E5      BbE5              D5E5
    PM----|   PM----|   PM|     PM----|   PM------------|
  E S S S S E S S S S E S S   E S S S S E S S S S S S S S
|---------------------------|-----------------------------|
|---------------------------|-----------------------------|
|---------------------------|-----------------------------|
|-9---------7---------3-----|-9---------7-----------------|
|-7---------5---------1-----|-7---------5-----------------|
|---0-0-0-0---0-0-0-0---0-0-|---0-0-0-0---0-0-0-0-0-0-0-0-|


            D5E5      BbE5
    PM----|   PM----|   PM|
  E S S S S E S S S S E S S
|-----------------------------|
|-----------------------------|
|-----------------------------|
|-9---------7---------3-------|
|-7---------5---------1-------|
|---0-0-0-0---0-0-0-0---0-0---|


               Chorus
  E5/D5/Bb5/F   E5    D5 E5 D5   C5      D5   G5F#G5A5  C5
 4/4           3/4              5/4                    3/4
  Gtr III
  W              Q.    E  E  E    Q   Q   H.             Q.    E  E  E
|------------||-12----14-15-14-|----------------------|-12----14-15-14--|
|------------||----------------|---------15-----------|-----------------|
|------------||--9----11-12-11-|-12--14---------------|--9----11-12-11--|
|------------||----------------|---------12-----------|-----------------|
|------------||----------------|-10--12---------------|-----------------|
|------------||----------------|----------------------|-----------------|
|
| Gtrs I, II
|                                             PM----|
| Q  Q  H        Q.    E  E  E    Q   Q   Q   E E E E    Q.    E  E  E
|------------||----------------|----------------------|-----------------|
|------------||----------------|----------------------|-----------------|
|-9--7--3----||--9-----7--9--7-|--5---5---7-----------|--5-----5--5--5--|
|-9--7--3----||--9-----7--9--7-|--5---5---7-----------|--5-----5--5--5--|
|-7--5--1----||--7-----5--7--5-|--3---3---5---5-4-5-7-|--3-----3--3--3--|
|-7--5--1----||----------------|--------------3-2-3-5-|-----------------|


  D5      E5   G5F#G5A5  E5
 5/4                    3/4
   Q   Q   H.             Q.    E  E  E
|-12------12-----------|----------------|
|-----15---------------|----------------|
|--9-------9-----------|-------16-16-16-|
|-----12---------------|-14-------------|
|----------------------|-------14-14-14-|
|----------------------|-12-------------|
|
|              PM----|
|  Q   Q   Q   E E E E    Q.    E  E  E
|----------------------|----------------|
|----------------------|----------------|
|--7---7---9-----------|--9-----9--9--9-|
|--7---7---9-----------|--9-----9--9--9-|
|--5---5---7---5-4-5-7-|--7-----7--7--7-|
|--------------3-2-3-5-|----------------|


  C5        D5   G5F#G5A5  C5
 5/4                      3/4
   E  E  Q   H.             Q.    E  E  E
|------------------------|-----------------|
|------------------------|-----------------|
|-16s14-12--14-----------|-12----11-12-11--|
|------------------------|-----------------|
|-14s12-10--12-----------|-10-----9-10--9--|
|------------------------|-----------------|
|
|                PM----|
|  Q     Q   Q   E E E E    Q.    E  E  E
|------------------------|-----------------|
|------------------------|-----------------|
|--5-----5---7-----------|--5-----5--5--5--|
|--5-----5---7-----------|--5-----5--5--5--|
|--3-----3---5---5-4-5-7-|--3-----3--3--3--|
|----------------3-2-3-5-|-----------------|


                 To Dbl. Coda
  D5                                   G5F#G5A5
 4/4
                                ~~
           |--3---|  |--3--|
   H       E   E  E  E  E  E    H      H
|----------------------------|-----------------|
|----------------------------|-----------------|
|-14------12p=11h12-14p12h14-|-16--------------|
|----------------------------|-----------------|
|-12------10p==9h10-12p10h12-|-14--------------|
|----------------------------|-----------------|
|
|                                      PM-------
|  Q.   E +Q         Q          E E Q  E E E E
|----------------------------|-----------------|
|----------------------------|-----------------|
|--7----7-(7)--------7-------|--7--------------|
|--7----7-(7)--------7-------|--7--------------|
|--5----5-(5)--------5-------|--5------5-4-5-7-|
|----------------------------|---------3-2-3-5-|


  E5
  W                 W
|-----------------|-----------------||
|-----------------|-----------------||
|-----------------|-----------------||
|-----------------|-----------------||
|-----------------|-----------------||
|-----------------|-----------------||
|
|---------------------------------|
| E E E E E E E E   E E E E E E E E
|-----------------|-----------------||
|-----------------|-----------------||
|-----------------|-----------------||
|-----------------|-----------------||
|-2-2-2-2-2-2-2-2-|-2-2-2-2-2-2-2-2-||
|-0-0-0-0-0-0-0-0-|-0-0-0-0-0-0-0-0-||


 Interlude
  1.
  Eb5A5  Eb5A5  Eb5A5  Eb5A5  Eb5E5    BbE5
  Gtrs I, II
     PM|    PM|    PM     PM|    PM--|   PM
   E E E  E E E  E E    E E E  E S S E E E
|--------------------|---------------------|
|--------------------|---------------------|
|--------------------|---------------------|
|-/8-----/8-----/8---|-/8-----/8-------3---|
|-/6-0-0-/6-0-0-/6-0-|-/6-0-0-/6-------1---|
|--------------------|-----------0-0-0---0-|


  Eb5A5  Eb5A5  Eb5A5  Eb5A5  Eb5E5    BbE5
     PM|    PM|    PM     PM|    PM--|   PM
   E E E  E E E  E E    E E E  E S S E E E
|--------------------|------------------------||
|--------------------|-----------------------o||
|--------------------|------------------------||
|-/8-----/8-----/8---|-/8-----/8-------3------||
|-/6-0-0-/6-0-0-/6-0-|-/6-0-0-/6-------1-----o||
|--------------------|-----------0-0-0---0----||


 Guitar Solo
  2.
  Bb5 E5  BbE5        Bb5 E5      BbE5     BbE5      BbE5
  Gtr III
   \7                 \7_____/
                                      ~~~~~~~~~~~
   H         +Q       E.    +S    E   Q.     +H
|-------------------------------|---^-0------(0)---------|
|-------------------------------|---^-x------------------|
|-<2>-------(<2>)---------------|---^<5>-----(5)---------|
|-------------------------------|------------------------|
|-------------------------------|------------------------|
|---------------------0-----(0)-|------------------------|
|
| Gtrs I, II
|     PM|     PM----|     PM          PM-|    PM---|   PM
|  E  E E E   E   S S E   E       E   E  E E  E  S S E E
|-------------------------------|------------------------|
|-------------------------------|------------------------|
|-------------------------------|------------------------|
|--3------3-----------3---------|-3--------3---------3---|
|--1------1-----------1---------|-1--------1---------1---|
|-----0-0-----0---0-0-----0-----|-----0--0----0--0-0---0-|


  Bb5      E5                Bb5      E5                       Bb5      E5
   |------6-------|  |------6-------|  |----------7----------|  |------6-------|
   S  S  S  S  S  S  S  S  S  S  S  S  S  S  S  S    S  S    S  S  S  S  S  S  S
|-------17-21-17-------16-19-16--------15-18---15------------14-19-14-----|
|16-18---------20-15-18--------18-14-17------------17-14-16----------16---|
|-----------------------------------------------------------------------16|
|-------------------------------------------------------------------------|
|-------------------------------------------------------------------------|
|-------------------------------------------------------------------------|
|
|           PM------|                  PM-----------------|              PM
|  E        E        E        E        E          S       S     E        E
|--------------------------------------------------------------------------|
|--------------------------------------------------------------------------|
|--------------------------------------------------------------------------|
|--3--------------------------3---------------------------------3----------|
|--1--------------------------1---------------------------------1----------|
|-----------0--------0-----------------0----------0-------0--------------0-|


  Bb5      E5                Bb5         E5                  Bb5 E5
   |------6-------|                                |---3---|
   S  S  S  S  S  S  S  T  T  T  T  T  T  S  T  T  S  S    S  Q
|----13-17-13----------------------12-11-12-11h12h14p12p==11-12/---||
|-16----------15-12-13-12----12-14---------------------------------||
|-------------------------15---------------------------------------||
|------------------------------------------------------------------||
|------------------------------------------------------------------||
|------------------------------------------------------------------||
|
|           PM------|                     PM------------|        PM
|  E        E        E        E           E        S    S     E  E
|------------------------------------------------------------------||
|------------------------------------------------------------------||
|------------------------------------------------------------------||
|--3--------------------------3-------------------------------3----||
|--1--------------------------1-------------------------------1----||
|-----------0--------0--------------------0--------0----0--------0-||


 Bridge
  E5           Bb5          F5     G5      E5         Bb5
    ~~~~~~~~~~~~~~~~~~~~~~~~~~~~~TPTPTP  TPTP
    W                +H      +E  E E E   E E  Q   H
|-/24-------------|-(24)----(24)-------|-----------------|
|-----------------|--------------------|-----------------|
|-----------------|--------------------|-----------------|
|-----------------|--------------------|-----------------|
|-----------------|--------------------|-----------------|
|-----------------|--------------xsxsxs|=xsx\------------|
|
|        PM           ~~~~    PM-|              PM
|   Q.   E E E Q     +H       E  E Q     Q.     E E E Q
|-----------------|--------------------|-----------------|
|-----------------|--------------------|-----------------|
|-----------------|--------------------|-----------------|
|--------------3--|--(3)---------------|--------------3--|
|---2----------1--|--(1)------3--3-5---|-2------------1--|
|---0----0-3p0----|-----------1--1-3---|-0------0-3p0----|


          F5       E5         Bb5
  Gtrs I, II       Gtrs I, III
   ~~~  PM--|           PM
  +Q.   E E E Q    Q.   E E E Q
|----------------|---------------|
|----------------|---------------|
|----------------|---------------|
|-(3)------------|------------3--|
|-(1)-----3-3-5--|-2----------1--|
|-------0-1-1-3--|-0----0-3p0----|


          F5  G5   E5             Bb5               F5    G5
  Gtr II
                              \3___/                             |
   W               H      Q   a   +Q     +Q   +Q    +Q    +E.   +S
|----------------|---------------------|-----------------------------||
|----------------|---------------------|-----------------------------||
|----------------|------------9---(9)--|-(9)--(9)---(9)---(9)---(9)--||
|----------------|---------------------|-----------------------------||
|----------------|---------------------|-----------------------------||
|----------------|---------------------|-----------------------------||
|
| Gtrs I, III
|  ~~~  PM--|           PM                ~~~  PM-|     PM
| +Q.   E E E Q    Q.   E E E      Q     +Q    E  E  E  E  E  E
|----------------|---------------------|-----------------------------||
|----------------|---------------------|-----------------------------||
|----------------|---------------------|-----------------------------||
|-(3)------------|-----------------3---|-(3)------------------0------||
|-(1)-----3-3-5--|-2---------------1---|-(1)---------3-----5---------||
|-------0-1-1-3--|-0----0-3p0----------|-------0--0--1--0--3---------||


 Guitar Solo
  Eb5 A5      Eb5 A5      Eb5A5    Eb5 A5      Eb5 E5        Bb5 E5
                                                                  ~~~~
   E   E   E   E   E   Q      E     E   E   E   E   E     E   E   E
|--------------------------------|-----------------------------------|
|--------------------------------|-----------------------------------|
|--------------------------------|-----------------------------------|
|---------[8]-----[7]--------[7]-|---------[7]-----[5]-----------[5]-|
|-[0]-[7]-----[0]-----[6]--------|-[0]-[7]-----[0]-------[0]-[1]-----|
|--------------------------------|-----------------------------------|
|
|      PM-|        PM-|       PM        PM-|        PM---|        PM
|  E   E   E   E   E   E   E  E     E   E   E   E   S  S  E   E   E
|--------------------------------|-----------------------------------|
|--------------------------------|-----------------------------------|
|--------------------------------|-----------------------------------|
|-/8----------/8----------/8-----|-/8----------/8-------------3------|
|-/6---0---0--/6---0---0--/6--0--|-/6---0---0--/6-------------1------|
|--------------------------------|------------------0--0--0-------0--|


  Eb5 A5      Eb5  A5      Eb5  A5
 ~~~~~
  +E  S S S S  S S S S S S  S S S S
|------------------------------------|
|------------------------------------|
|------------------5-4---------------|
|-(5)-------7--7-------7p5--7---5----|
|-----0-6-7------7------------0---7--|
|------------------------------------|
|
|     PM--|        PM--|        PM
|  E  E   E    E   E   E    E   E
|------------------------------------|
|------------------------------------|
|------------------------------------|
|-/8----------/8-----------/8--------|
|-/6--0---0---/6---0---0---/6---0----|
|------------------------------------|


  Eb5  A5      Eb5  E5    BbE5
                    ~~~~~~~~~~~
   S S S S S S  S S H
|-----------------------------|
|-----------------------------|
|-----------------------------|
|--7-------7------------------|
|----0-0h6---0--5s7-----------|
|-------------------7---------|
|
|      PM--|        PM--|   PM
|  E   E   E    E   S S E E E
|-----------------------------|
|-----------------------------|
|-----------------------------|
|-/8-----------/8---------3---|
|-/6---0---0---/6---------1---|
|-------------------0-0-0---0-|


             Eb5   A5Eb5 A5               Eb5   A5
 ~~~~~~
       |-3-|
  +E   S S S  S  S  S  S  S     +S   S  S  S  S  S  S
|------------20-19-17----17b19r(17)-15h17-13h17-12h17-|
|----------x----------20------------------------------|
|--------x--------------------------------------------|
|------x----------------------------------------------|
|-----------------------------------------------------|
|-(7)/------------------------------------------------|
|
|      PM----|            PM--------|            PM
|  E   E      E     E     E          E     E     E
|-----------------------------------------------------|
|-----------------------------------------------------|
|-----------------------------------------------------|
|-/8---------------/8---------------------/8----------|
|-/6---0------0----/6-----0----------0----/6-----0----|
|-----------------------------------------------------|


  Eb5         A5                      Eb5         E5                   Bb5E5
                                                                        ~~
                                                               |--3--|
   T  T  T  T  T  T  T  T  T  T  T  T  T  T  T  T  T  T  T  T  S  S  S  Q
|-13-13-12-13-14-13-12-12-12-15-13-12-15-15-13-12--------------------------|
|-------------------------------------------------15-13-12-15-15p13p12-----|
|----------------------------------------------------------------------14--|
|--------------------------------------------------------------------------|
|--------------------------------------------------------------------------|
|--------------------------------------------------------------------------|
|
|              PM---------|                        PM---------|           PM
|  E           E           E           E           S     S     E        E E
|--------------------------------------------------------------------------|
|--------------------------------------------------------------------------|
|--------------------------------------------------------------------------|
|-/8----------------------------------/8--------------------------------3--|
|-/6-----------0-----------0----------/6--------------------------------1--|
|--------------------------------------------------0-----0-----0----------0|


                                                        D.S. al Coda
  Eb5   A5          Eb5   A5          Eb5A5  Eb5      A5  Eb5A5  Eb5A5
                                       ~~~~~~~~~~~~
   S  S  S  S  S  S  S  S  S  S  S  S  Q      +S   E.   Q    H
|-------------------------------------17---|-(17)\--------------------||
|----------------16----------17------------|--------------------------||
|-------14-15-15----15-16-16----16s18------|--------------------------||
|----14------------------------------------|--------------------------||
|------------------------------------------|--------------------------||
|------------------------------------------|--------------------------||
|
|        PM---|            PM---|        PM           PM|    PM|    PM
|  E     E     E     E     E     E     E E     E      E E  E E E  E E
|------------------------------------------|--------------------------||
|------------------------------------------|--------------------------||
|------------------------------------------|--------------------------||
|-/8----------------/8----------------/8---|--/8----------/8-----/8---||
|-/6-----0-----0----/6-----0-----0----/6-0-|--/6------0-0-/6-0-0-/6-0-||
|------------------------------------------|--------------------------||


 Interlude
  &
  A5    F5     C5        D5    G5
  Gtr IV
  E E e E  E E E E    E  E E E E E  E E
|------------------|--------------------|
|------------------|--------------------|
|-----2------0-----|--0------0----------|
|---2-----10-----5-|-------7------------|
|-0-----8------3---|-----5-------5------|
|------------------|-----------3---/8-7-|
|
| Gtr V
| E E E E  E E Q      E  E E E Q    Q
|------------------|--------------------|
|-------0--1---3---|-----0-1------------|
|-----2------2-----|--2------0----------|
|---2--------------|--------------------|
|-0----------------|-----------2---/7---|
|------------------|--------------------|
|
| Gtrs I, III
| W                  +W
|------------------|--------------------|
|------------------|--------------------|
|------------------|--------------------|
|-2----------------|-(2)----------------|
|-0----------------|-(0)----------------|
|------------------|--------------------|


  A5      F5       C5        D5    G  C5B5
   E  E E  E  E  E E E    E  E E E Q  E E
|----------------------|------------------|
|----------------------|------------------|
|-------2-------10-----|--5------7--------|
|-----2------10------5-|-------7----------|
|--0------/8-------3---|-----5--------3-2-|
|----------------------|-----------3------|
|
|  E  E E  E  E  E E E    E  E E E Q  E E
|----------------1-0---|------------------|
|----------0--1------1-|-----0-1----------|
|-------2--------------|--2------2--------|
|-----2----------------|--------------5-4-|
|--0-------------------|-----------2------|
|----------------------|------------------|
|
|  >
| +W                     +W
|----------------------|------------------|
|----------------------|------------------|
|----------------------|------------------|
|-(2)------------------|-(2)--------------|
|-(0)------------------|-(0)--------------|
|----------------------|------------------|


  A5      F5     C5        D5    G5
  Gtr IV
   E  E E E  E E E E    E  E E E E E  E E
|--------------------|--------------------|
|--------------------|--------------------|
|-------2------0-----|--0------0----------|
|-----2-----10-----5-|-------7------------|
|--0------8------3---|-----5-------5------|
|--------------------|-----------3---/8-7-|
|
| Gtrs V, VI
|  E  E E E  E E Q      E  E E E Q    Q
|--------------------|--------------------|
|---------0--1---3---|-----0-1------------|
|-------2------2-----|--2------0----------|
|-----2--------------|--------------------|
|--0-----------------|-----------2---/7---|
|--------------------|--------------------|
|
| Gtrs I, III
| +W                   +W
|--------------------|--------------------|
|--------------------|--------------------|
|--------------------|--------------------|
|-(2)----------------|-(2)----------------|
|-(0)----------------|-(0)----------------|
|--------------------|--------------------|


  A5    F5       C5      D5    GsusAsus4
  E E E  E  E  E E E   E E E E E E Q
|--------------------|-----------------|
|--------------------|-----------------|
|-----2-------10-----|-5-----7---------|
|---2------10------5-|-----7---5-7-7\--|
|-0-----/8-------3---|---5-----3-5-5\--|
|--------------------|---------3-5-5\--|
|
| E E E  E  E  E E E   E E E E E E Q
|--------------1-0---|-----------------|
|--------0--1------1-|---0-1-----------|
|-----2--------------|-2-----2---------|
|---2----------------|-----------------|
|-0------------------|---------3-5-5\--|
|--------------------|---------3-5-5\--|
|
| W                    H       E E Q
|--------------------|-----------------|
|--------------------|-----------------|
|--------------------|-----------------|
|--------------------|-----------------|
|--------------------|---------3-5-5---|
|--------------------|---------3-5-5---|


  Eb5A5  Eb5A5  Eb5A5  Eb5A5  Eb5E5    BbE5
  Gtrs I, II
     PM|    PM|    PM     PM|    PM--|   PM
   E E E  E E E  E E    E E E  E S S E E E
|--------------------|---------------------|
|--------------------|---------------------|
|--------------------|---------------------|
|-/8-----/8-----/8---|-/8-----/8-------3---|
|-/6-0-0-/6-0-0-/6-0-|-/6-0-0-/6-------1---|
|--------------------|-----------0-0-0---0-|


                      D.S.S. al Dbl. Coda
  Eb5    Eb5    Eb5    Eb5    Eb5E5    BbE5
     PM|    PM|    PM     PM|    PM--|   PM
   E E E  E E E  E E    E E E  E S S E E E
|--------------------|-----------------------||
|--------------------|-----------------------||
|--------------------|-----------------------||
|-/8-----/8-----/8---|-/8-----/8-------3-----||
|-/6-0-0-/6-0-0-/6-0-|-/6-0-0-/6-------1-----||
|--------------------|-----------0-0-0---0---||


  &&
  D5                   G5F#G5A5  E5
                      2/4       4/4
  Gtr III
   ~~~
   Q.      +E   H      H         W                 W
|--------------------|---------|-----------------|-----------------||
|--------------------|---------|-----------------|-----------------||
|-16------(16)\------|---------|-----------------|-----------------||
|--------------------|---------|-----------------|-----------------||
|-14------(14)\------|---------|-----------------|-----------------||
|--------------------|---------|-----------------|-----------------||
|
| Gtrs I, II
|                      PM----------------------------------------|
|  E  E Q       H      E E E E   E E E E E E E E   E E E E E E E E
|--------------------|---------|-----------------|-----------------||
|--------------------|---------|-----------------|-----------------||
|--7-----------------|---------|-----------------|-----------------||
|--7-----------------|---------|-----------------|-----------------||
|--5-----------------|-5-4-5-7-|-2-2-2-2-2-2-2-2-|-2-2-2-2-2-2-2-2-||
|--------------------|-3-2-3-5-|-0-0-0-0-0-0-0-0-|-0-0-0-0-0-0-0-0-||


 Interlude
      Bb5 E5  BbE5      Bb5 E5       Bb5   E5  BbE5        BbE5
  Gtr II
  \1___/         \7              \1____/           \5
  a   +H        +Q      +Q       a    +H          +Q.         +E
|-----------------------------|------------------------------------|
|-----------------------------|------------------------------------|
|-----------------------------|-<7>--(<7>)-------(<7>)-------(<7>)-|
|-----------------------------|------------------------------------|
|-----------------------------|------------------------------------|
|-4---(4)-------(4)-----(x)---|------------------------------------|
|
| Gtrs I, III
|         PM|    PM---|     PM             PM|     PM----|     PM
|      E  E E E  E  S S  E  E          E   E E E   E   S S E   E
|-----------------------------|------------------------------------|
|-----------------------------|------------------------------------|
|-----------------------------|------------------------------------|
|------3------3----------3----|--------3-------3-----------3-------|
|------1------1----------1----|--------1-------1-----------1-------|
|---------0-0----0--0-0-----0-|------------0-0-----0---0-0-----0---|


          Bb5    E5  BbE5                BbE5       Bb5 E5  BbE5        Bb5   E5
    \3.5_____/            /      \3.5________________/                    \7
    a       +H           +E     +Q           +E      H         +Q        +E.     +S
|-<12>----(<12>)-------(<12>)-(<12>)-------(<12>)-|------------------------|
|-<12>----(<12>)-------(<12>)-(<12>)-------(<12>)-|------------------------|
|-------------------------------------------------|-<3>-------(<3>)-(<3>)()|
|-------------------------------------------------|------------------------|
|-------------------------------------------------|------------------------|
|-------------------------------------------------|------------------------|
|
|                PM|      PM-----------|      PM        PM|     PM----|       PM
|            E   E E E    E      S     S E    E      E  E E E   E   S S   E   E
|---------------------------------------------|-------------------------|
|---------------------------------------------|-------------------------|
|---------------------------------------------|-------------------------|
|----------3-------3-------------------3------|--3------3------------3--|
|----------1-------1-------------------1------|--1------1------------1--|
|------------0-0------0------0-----0------0---|-----0-0-----0---0-0----0|


  E5     Bb5    E5                              Bb5    E5
  Gtrs I, III
  PM---| ~      PM----------------------------| ~      PM-------------------|
  E Q  E H      E Q  E S S S S S S S S   E Q  E H      E Q  E S S S S S S S S
|-------------|------------------------|-------------|---------------------|
|-------------|------------------------|-------------|---------------------|
|--------3----|------------------------|--------3----|---------------------|
|--------3----|------------------------|--------3----|---------------------|
|-2-2--2------|-2-2--2-----------------|-2-2--2------|-2-2--2--------------|
|-0-0--0------|-0-0--0-0-1-2-3-0-1-2-3-|-0-0--0------|-0-0--0-0-1-2-3-01-2-3


           Bb5        E5
  Gtr II
                            ~~~~~~
  E E  E E E E  E E   E E E E +H
|-------------------|---------------------------|
|-------------------|---------------------------|
|-------------------|---------------------------|
|-8-9-10-9-8-7------|---------------------------|
|--------------10-9-|-----8-7-(7)---------------|
|-------------------|-0-6-----------------------|
|
| Gtrs I, III
| PM-----| ~          PM-------------------------
| E Q    E H          E Q   E  S  S S S S S S S
|-------------------|---------------------------|
|-------------------|---------------------------|
|----------3--------|---------------------------|
|----------3--------|---------------------------|
|-2-2----2----------|-2-2---2-------------------|
|-0-0----0----------|-0-0---0--0--1-2-3-0-1-2-3-|


           Bb5        E5
                            ~~~~~~
  E E  E E E  E E E   E E E E +H
|-------------------|----------------------------||
|-------------------|----------------------------||
|-----10-9----------|----------------------------||
|-8-9------9--------|----------------------------||
|------------10-9-7-|-----8-7-(7)----------------||
|-------------------|-0-6------------------------||
|
|--------| ~          PM----------------------|
| E Q    E H          E Q   E  S  S S S S S S S
|-------------------|----------------------------||
|-------------------|----------------------------||
|----------3--------|----------------------------||
|----------3--------|----------------------------||
|-2-2----2----------|-2-2---2--------------------||
|-0-0----0----------|-0-0---0--0--1-2-3-0-1-2-3--||


   Outro
           Bb5    E5
    Gtrs I, III
    PM---| ~      PM----------------------
    E Q  E H      E Q  E S S S S S S S S
||--------------|------------------------|
||o-------------|------------------------|
||---------3----|------------------------|
||---------3----|------------------------|
||o-2-2--2------|-2-2--2-----------------|
||--0-0--0------|-0-0--0-0-1-2-3-0-1-2-3-|


         Bb5    E5
 ------| ~      PM-------------------|
  E Q  E H      E Q  E S S S S S S S S  8x W
|-------------|-------------------------||------*|
|-------------|------------------------o||------*|
|--------3----|-------------------------||------*|
|--------3----|-------------------------||------*|
|-2-2--2------|-2-2--2-----------------o||-2----*|
|-0-0--0------|-0-0--0-0-1-2-3-0-1-2-3--||-0----*|




--------------------------------------------------------------------------------


Duration Legend
---------------
W - whole; H - half; Q - quarter; E - 8th; S - 16th; T - 32nd; X - 64th; a - acciaccatura
+ - note tied to previous; . - note dotted; .. - note double dotted
Uncapitalized letters represent notes that are staccato (1/2 duration)
Irregular groupings are notated above the duration line
Duration letters will always appear directly above the note/fret number it represents the
duration for.  Duration letters with no fret number below them represent rests.  Multi-
bar rests are notated in the form Wxn, where n is the number of bars to rest for.  Low
melody durations appear below the staff

Tablature Legend
----------------
 h   - hammer-on
 p   - pull-off
 b   - bend
 pb  - pre-bend
 r   - bend release (if no number after the r, then release immediately)
 /\  - slide into or out of (from/to "nowhere")
 s   - legato slide
 S   - shift slide
<n> - natural harmonic
[n]  - artificial harmonic
n(n) - tapped harmonic
 ~   - vibrato
 tr  - trill
 T   - tap
 TP  - trem. picking
 PM  - palm muting
\n/  - tremolo bar dip; n = amount to dip
 \n  - tremolo bar down
 n/  - tremolo bar up
/n\  - tremolo bar inverted dip
 =   - hold bend; also acts as connecting device for hammers/pulls
 <> - volume swell (louder/softer)
 x   - on rhythm slash represents muted slash
 o   - on rhythm slash represents single note slash

Misc Legend
-----------
 |  - bar
||  - double bar
||o - repeat start
o|| - repeat end
*|  - double bar (ending)
 :  - bar (freetime)
 $  - Segno
 &  - Coda
Tempo markers - <E/E./Q/Q./H/H.> = BPM(8/16=s8/s16), where s8 = swing 8ths, s16 = swing 16ths


comments
print report bad tab
I want to post or [tab]
guest
You may want to rate the tab now too:
select rating
Please do not post tabs as comments. Select "correction" instead!