Oops, an error
Loading. Please wait.

Devils Child Bass Tab

ver1
ver1

Whole song

Interactive

More versions @911Tabs.com
1,040 views 21 this week
no commentswrite comment
1 2 3 4 5
accurate
x 2
Autoscroll
+/-
esc
set tempo
stop
Difficulty
intermediate
WARNING: You are trying to view
                                    content from Ultimate-Guitar.com
                                    in an unauthorized application,
                                    which is prohibited.

                                    Please use an official Ultimate
                                    Guitar Tabs application for iPhone,
                                    iPad or Android to access legitimate
                                    chords, guitar, bass, and drum tabs
                                    from Ultimate-Guitar.com database.

                                    Type "ultimate guitar tabs" in Apple
                                    App Store's or Android Market's
                                    search to find the application.
                               Devil Child                                   
                          Screaming for vengance

                              Judas Priest
ian hill

this is the only bass line  of the devil child 
is completely, the song


standar tuning 
G - R - A - E

     transcribed  ju.da.s    

       verse and intro 1                       
          
G||----------------------------------------|---------------------|
D||----------------------------------------|---------------------|
A||--0----------------------0---------3----|------------5--------|
E||----------------------------------------|--3------------------|

    
----------------------|---------------------|----------------------|
----------------------|---------------------|----------------------|
--0----0---------3----|---------------------|--0----0---------3----|
----------------------|--3------------------|----------------------|

  
---------------------|----------------------|----------------------|
---------------------|----------------------|----------------------|
------------5--------|--0----0---------3----|----------------0--0--|
--3------------------|----------------------|--3-------------------|


    
------------------------|------------------------|------------------------|
------------------------|------------------------|------------------------|
--0----0--0--0--0--3----|-------------5----5--5--|--0----0--0--0--0--3----|
------------------------|--3----3--3-------------|------------------------|


   
-------------------------|------------------------|------------------------|
-------------------------|------------------------|------------------------|
-------------------------|--0----0--0--0--0--3----|-------------5----5--5--|
--3----3--3--3--3--3--3--|------------------------|--3----3--3-------------|


                                                                           
   
------------------------|-------------------------|------------------------|
------------------------|-------------------------|------------------------|
--0----0--0--0--0--3----|-------------------------|--0----0--0--0--0--3----|
------------------------|--3----3--3--3--3--3--3--|------------------------|


                                                                           
   
------------------------|------------------------|-------------------------|
------------------------|------------------------|-------------------------|
-------------5----5--5--|--0----0--0--0--0--3----|-------------------------|
--3----3--3-------------|------------------------|--3----3--3--3--3--3--3--|

                                                                     
------------------------|------------------------|------------------------|
------------------------|------------------------|------------------------|
--0----0--0--0--0--3----|-------------5----5--5--|--0----0--0--0--0--3----|
------------------------|--3----3--3-------------|------------------------|

                          pre chorus 
-------------------------|------------------------|---------------------|
-------------------------|------------------------|---------------------|
-------------------------|----------7----5--7-----|-----5---------------|
--3----3--3--3--3--3--3--|--0----0-------------0--|--0---------5--------|

   
-----------------------|--------------------------|------------------------|
--2--------------------|--------------------------|------------------------|
---------7----5--7-----|--------3--3--------------|----------7----5--7-----|
--------------------0--|--0--x--------x--3--3---x-|--0----0-------------0--|

        
---------------------|-----------------------|-----------------------|
---------------------|--2--------------------|-----------------------|
-----5---------------|---------7----5--7-----|-----5--5--5-----------|
--0---------5--------|--------------------0--|--0-----------5--------|
 
-------------------------|---------------------|------------------------|
-------------------------|---------------------|-------------------5----|
--0----0--0--0--0--0--0--|--3--5------------L--|--0----0--0--0--0-------|
-------------------------|---------------------|------------------------|
  
-------------------|-------------------------|---------------------|
--4----------------|-------------------------|---------------------|
-------------------|--0----0--0--0--0--0--0--|--3--5------------L--|
-------------------|-------------------------|---------------------|
   
------------------------|----------------------|------------------------|
-------------------5----|--4-------------------|------------------------|
--0----0--0--0--0-------|----------------0--0--|--0----0--0--0--0--3----|
------------------------|----------------------|------------------------|

   
------------------------|------------------------|-------------------------|
------------------------|------------------------|-------------------------|
-------------5----5--5--|--0----0--0--0--0--3----|-------------------------|
--3----3--3-------------|------------------------|--3----3--3--3--3--3--3--|
    
------------------------|------------------------|------------------------|
------------------------|------------------------|------------------------|
--0----0--0--0--0--3----|-------------5----5--5--|--0----0--0--0--0--3----|
------------------------|--3----3--3-------------|------------------------|

  
-------------------------|------------------------|------------------------|
-------------------------|------------------------|------------------------|
-------------------------|--0----0--0--0--0--3----|-------------5----5--5--|
--3----3--3--3--3--3--3--|------------------------|--3----3--3-------------|

   
------------------------|-------------------------|------------------------|
------------------------|-------------------------|------------------------|
--0----0--0--0--0--3----|-------------------------|--0----0--0--0--0--3----|
------------------------|--3----3--3--3--3--3--3--|------------------------|

  
------------------------|------------------------|-------------------------|
------------------------|------------------------|-------------------------|
-------------5----5--5--|--0----0--0--0--0--3----|-------------------------|
--3----3--3-------------|------------------------|--3----3--3--3--3--3--3--|

 
------------------------|---------------------|-----------------------|
------------------------|---------------------|--2--------------------|
----------7----5--7-----|-----5---------------|---------7----5--7-----|
--0----0-------------0--|--0---------5--------|--------------------0--|

      
--------------------------|------------------------|---------------------|
--------------------------|------------------------|---------------------|
--------3--3--------------|----------7----5--7-----|-----5---------------|
--0--x--------x--3--3---x-|--0----0-------------0--|--0---------5--------|

  
-----------------------|-----------------------|-------------------------|
--2--------------------|-----------------------|-------------------------|
---------7----5--7-----|-----5--5--5-----------|--0----0--0--0--0--0--0--|
--------------------0--|--0-----------5--------|-------------------------|

               
---------------------|------------------------|-------------------|
---------------------|-------------------5----|--4----------------|
--3--5------------L--|--0----0--0--0--0-------|-------------------|
---------------------|------------------------|-------------------|

-------------------------|---------------------|------------------------|
-------------------------|---------------------|-------------------5----|
--0----0--0--0--0--0--0--|--3--5------------L--|--0----0--0--0--0-------|
-------------------------|---------------------|------------------------|
        
-------------------|--------------------|--------------------|
--4----------------|--------------------|--------------------|
-------------------|--2------------5----|-----------7--------|
-------------------|--------------------|--5-----------------|
  
--------------------|--------------------|--------------------|
--------------------|--------------------|--------------------|
--2------------5----|-----------7--------|--2------------5----|
--------------------|--5-----------------|--------------------|
      
--------------------|--------------------|--------------------|
--------------------|--------------------|--------------------|
-----------7--------|--2------------5----|-----------7--------|
--5-----------------|--------------------|--5-----------------|

--------------------|--------------------|--------------------|
--------------------|--------------------|--------------------|
---------------0----|-----------2--------|---------------0----|
--2-----------------|--0-----------------|--2-----------------|

        
--------------------|--------------------|--------------------|
--------------------|--------------------|--------------------|
-----------2--------|---------------0----|-----------2--------|
--0-----------------|--2-----------------|--0-----------------|
               
--------------------|--------------------|-------------------|
--------------------|--------------------|-------------------|
---------------0----|-----------2--------|--4----------------|
--2-----------------|--0-----------------|-------------------|

                
-------------------|-------------------|-------------------|-------------------|
-------------------|-------------------|-------------------|-------------------|
--2----------------|--0----------------|--2----------------|--4----------------|
-------------------|-------------------|-------------------|-------------------|


                
-------------------|-------------------|-------------------|-------------------|
-------------------|-------------------|-------------------|-------------------|
--2----------------|--0----------------|--2----------------|--4----------------|
-------------------|-------------------|-------------------|-------------------|

             
-------------------|-------------------|-------------------|-------------------|
-------------------|-------------------|-------------------|-------------------|
--2----------------|--0----------------|--2----------------|--4----------------|
-------------------|-------------------|-------------------|-------------------|


                
-------------------|-------------------|-------------------|
-------------------|-------------------|-------------------|
--2----------------|--0----------------|--2----------------|
-------------------|-------------------|-------------------|
                                                                        
     
------------------------|------------------------|------------------------|
------------------------|------------------------|------------------------|
--0----0--0--0--0--3----|-------------5----5--5--|--0----0--0--0--0--3----|
------------------------|--3----3--3-------------|------------------------|
  
-------------------------|------------------------|------------------------|
-------------------------|------------------------|------------------------|
-------------------------|--0----0--0--0--0--3----|-------------5----5--5--|
--3----3--3--3--3--3--3--|------------------------|--3----3--3-------------|

   
------------------------|-------------------------|------------------------|
------------------------|-------------------------|------------------------|
--0----0--0--0--0--3----|-------------------------|--0----0--0--0--0--3----|
------------------------|--3----3--3--3--3--3--3--|------------------------|
   
------------------------|------------------------|-------------------------|
------------------------|------------------------|-------------------------|
-------------5----5--5--|--0----0--0--0--0--3----|-------------------------|
--3----3--3-------------|------------------------|--3----3--3--3--3--3--3--|
    
------------------------|------------------------|------------------------|
------------------------|------------------------|------------------------|
--0----0--0--0--0--3----|-------------5----5--5--|--0----0--0--0--0--3----|
------------------------|--3----3--3-------------|------------------------|
      
-------------------------|------------------------|---------------------|
-------------------------|------------------------|---------------------|
-------------------------|----------7----5--7-----|-----5---------------|
--3----3--3--3--3--3--3--|--0----0-------------0--|--0---------5--------|
  
-----------------------|--------------------------|------------------------|
--2--------------------|--------------------------|------------------------|
---------7----5--7-----|--------3--3--------------|----------7----5--7-----|
--------------------0--|--0--x--------x--3--3---x-|--0----0-------------0--|
        
---------------------|-----------------------|-----------------------|
---------------------|--2--------------------|-----------------------|
-----5---------------|---------7----5--7-----|-----5--5--5-----------|
--0---------5--------|--------------------0--|--0-----------5--------|
    
-------------------------|---------------------|------------------------|
-------------------------|---------------------|-------------------5----|
--0----0--0--0--0--0--0--|--3--5------------L--|--0----0--0--0--0-------|
-------------------------|---------------------|------------------------|
 
-------------------|-------------------------|---------------------|
--4----------------|-------------------------|---------------------|
-------------------|--0----0--0--0--0--0--0--|--3--5------------L--|
-------------------|-------------------------|---------------------|

------------------------|----------------------|-------------------------|
-------------------5----|--4-------------------|-------------------------|
--0----0--0--0--0-------|----------------0--0--|--0----0--0--0--0--0--0--|
------------------------|----------------------|-------------------------|
                
---------------------|------------------------|-------------------|
---------------------|-------------------5----|--4----------------|
--3--5------------L--|--0----0--0--0--0-------|-------------------|
---------------------|------------------------|-------------------|
 
-------------------------|---------------------|------------------------|
-------------------------|---------------------|-------------------5----|
--0----0--0--0--0--0--0--|--3--5------------L--|--0----0--0--0--0-------|
-------------------------|---------------------|------------------------|
 
----------------------|-------------------------|---------------------|
--4-------------------|-------------------------|---------------------|
----------------0--0--|--0----0--0--0--0--0--0--|--3--5------------L--|
----------------------|-------------------------|---------------------|

------------------------|-------------------|-------------------------|
-------------------5----|--4----------------|-------------------------|
--0----0--0--0--0-------|-------------------|--0----0--0--0--0--0--0--|
------------------------|-------------------|-------------------------|


---------------------|------------------------|----------------------||
---------------------|-------------------5----|--4-------------------||
--3--5------------L--|--0----0--0--0--0-------|----------------------||
---------------------|------------------------|----------------------||



thank's to metalgod .jp@hotmail.com 
comments
We did not receive enough feedback on this tab! Please rate:
print report bad tab
1 2 3 4 5
I want to post or [tab]
guest
You may want to rate the tab now too:
select rating
Please do not post tabs as comments. Select "correction" instead!