Oops, an error
Loading. Please wait.

Diamonds And Rust Bass Tab

ver1
ver1

Whole song

Interactive

More versions @911Tabs.com
4,673 views 24 this week
no commentswrite comment
1 2 3 4 5
excellent!
x 1
add to favorites launch autoscroll
font size
0
reset
Autoscroll
+/-
esc
set tempo
stop
Contributor
Difficulty
intermediate
WARNING: You are trying to view
                                    content from Ultimate-Guitar.com
                                    in an unauthorized application,
                                    which is prohibited.

                                    Please use an official Ultimate
                                    Guitar Tabs application for iPhone,
                                    iPad or Android to access legitimate
                                    chords, guitar, bass, and drum tabs
                                    from Ultimate-Guitar.com database.

                                    Type "ultimate guitar tabs" in Apple
                                    App Store's or Android Market's
                                    search to find the application.
-------------------------------------------------------------------------------
			     DIAMONDS AND RUST - Judas Priest
-------------------------------------------------------------------------------

Tabbed By : Isaias Garcia (TexasFury)

Album: Unleashed In The East (Live)

Tuning: Standard


     W                   W                   W                   W
G||-------------------|-------------------|-------------------|-------------------|
D||-------------------|-------------------|-------------------|-------------------|
A||-------------------|-------------------|-------------------|-------------------|
E||-------------------|-------------------|-------------------|-------------------|


  W                   W                   W                   W                   W
-------------------|-------------------|-------------------|-------------------|---------------|
-------------------|-------------------|-------------------|-------------------|---------------|
-------------------|-------------------|-------------------|-------------------|---------------|
-------------------|-------------------|-------------------|-------------------|---------------|


  W                   E  S S E  S S E  S S E  S S    E  S S E  S S E  S S E  E
-------------------|------------------------------|-----------------------------|
-------------------|------------------------------|-----------------------------|
-------------------|--7--7-7-7--7-7-7--7-7-7--7-7-|--7--7-7-7--7-7-7--7-7-7--7--|
-------------------|------------------------------|-----------------------------|


  E  S S E  S S E  S S E  E     E  S S E  S S E  S S E  E     E  S S E  S S E  S S E  S S
-----------------------------|-----------------------------|------------------------------|
-----------------------9-----|-----------------------------|------------------------------|
-----------------------------|-----------------------------|--7--7-7-7--7-7-7--7-7-7--7-7-|
--7--7-7-7--7-7-7--7-7----7--|--7--7-7-7--7-7-7--7-7-7--7--|------------------------------|


  E  S S E  S S E  S S E  E     E  S S E  S S E  S S E  S S    E  S S E  S S E  S S E  E
-----------------------------|------------------------------|-----------------------------|
-----------------------------|------------------------------|-----------------------9--9--|
--7--7-7-7--7-7-7--7-7-7--7--|------------------------------|-----------------------------|
-----------------------------|--7--7-7-7--7-7-7--7-7-7--7-7-|--7--7-7-7--7-7-7--7-7-------|


  E  S S E  S S E  S S E  S S    E  S S Q    E  S S E  E     E  S S E  S S E  S S E  S S
------------------------------|---------9-----------------|------------------------------|
------------------------------|---------------------------|------------------------------|
--7--7-7-7--7-7-7--7-7-7--7-7-|--7--7-7------7--7-7-7--7--|--3--3-3-3--3-3-3--3-3-3--3-3-|
------------------------------|---------------------------|------------------------------|


  E  S S E  S S E  S S E  E     E  S S E  S S E  S S E  S S    E  S S E  S S E  S S E  E
-----------------------------|------------------------------|-----------------------------|
-----------------------------|------------------------------|-----------------------------|
--3--3-3-3--3-3-3--3-3-3--3--|------------------------------|-----------------------------|
-----------------------------|--3--3-3-3--3-3-3--3-3-3--3-3-|--3--3-3-3--3-3-3--3-3-3--3--|


  E  S S E  S S E  S S E  S S    E  S S E  S S E  S S E  E     E  S S E  S S E  S S E  S S
------------------------------|-----------------------------|------------------------------|
------------------------------|-----------------------------|------------------------------|
--5--5-5-5--5-5-5--5-5-5--5-5-|--5--5-5-5--5-5-5--5-5-5--5--|--7--7-7-7--7-7-7--7-7-7--7-7-|
------------------------------|-----------------------------|------------------------------|


  E  S S E  S S E  S S E  S S    E  S S E  S S E  S S E  S S    E  S S E  S S E  S S E  E
------------------------------|------------------------------|-----------------------------|
------------------------------|------------------------------|-----------------------------|
--7--7-7-7--7-7-7--7-7-7--7-7-|--7--7-7-7--7-7-7--7-7-7--7-7-|--7--7-7-7--7-7-7--7-7-7--7--|
------------------------------|------------------------------|-----------------------------|


  E  S S E  S S E  S S E  S S    E  S S E  S S E  S S E  E     E  S S E  S S E  S S E  S S
------------------------------|-----------------------------|------------------------------|
------------------------------|-----------------------------|------------------------------|
--3--3-3-3--3-3-3--3-3-3--3-3-|--3--3-3-3--3-3-3--3-3-3--3--|------------------------------|
------------------------------|-----------------------------|--3--3-3-3--3-3-3--3-3-3--3-3-|


  E  S S E  S S E  S S E  E     E  S S E  S S E  S S E  S S    E  S S E  S S E  S S E  E
-----------------------------|------------------------------|-----------------------------|
-----------------------------|------------------------------|-----------------------------|
-----------------------------|--5--5-5-5--5-5-5--5-5-5--5-5-|--5--5-5-5--5-5-5--5-5-5--5--|
--3--3-3-3--3-3-3--3-3-3--3--|------------------------------|-----------------------------|


  E  S S E  S S E  S S E  S S    E  S S E  S S E  S S Q        E  S S E  S S E  S S E  E
------------------------------|-----------------------9\----|-----------------------------|
------------------------------|-----------------------------|-----------------------------|
--7--7-7-7--7-7-7--7-7-7--7-7-|--7--7-7-7--7-7-7--7-7-------|--3--3-3-3--3-3-3--3-3-3--3--|
------------------------------|-----------------------------|-----------------------------|


  E  S S E  S S E  S S E  E     E  S S E  S S E  S S E  S S    E  S S E  S S E  S S E  E
-----------------------------|------------------------------|-----------------------------|
-----------------------------|------------------------------|-----------------------------|
--5--5-5-5--5-5-5--5-5-5--5--|--7--7-7-7--7-7-7--7-7-7--7-7-|--7--7-7-7--7-7-7--7-7-7--7--|
-----------------------------|------------------------------|-----------------------------|


  E  S S E  S S E  S S E  E     E  S S E  S S E  S S E  E     E  S S E  S S E  S S E  E
-----------------------------|-----------------------------|-----------------------------|
-----------------------------|-----------------------------|-----------------------------|
--3--3-3-3--3-3-3--3-3-3--3--|--5--5-5-5--5-5-5--5-5-5--5--|--7--7-7-7--7-7-7--7-7-7--7--|
-----------------------------|-----------------------------|-----------------------------|


  W                   H        S S E  S S S S    H        S S S S E  S S
-------------------|--------------------------|--------------------------|
--9----------------|--------------------------|---------------7----------|
--7----------------|--2--------2---2--L---2-1-|--0--------0-7---7-0--0-1-|
-------------------|-------------2------2-----|--------------------------|


  H        S S E  S S S S    Q    S S S S E  S S S S S S    H        S S S S S S E
--------------------------|------------------------------|-----------------5-5------|
--------------------------|-----------7----------7-------|-------------5-5-----5----|
--2--------2---2--L---2-1-|--0----0-7---7-0--0-7---7-0-2-|--3--------3-----------3--|
-------------2------2-----|------------------------------|--------------------------|


  Q    S S S S E  S S S S S S    Q    E.  S S S E  S S S S
------------------------------|----------------------------|
-----------5----------3-------|-----------3-3----------3---|
---------5---5------3---3-----|---------------3------3---3-|
--3----3-------3--3-------3-2-|--1----L---------1--1-------|


  T T T T T T T T T T T T T T T T T T T T T T T T T T T T T T T T
------------------------------------------------------------------|
------------------------------------------------------------------|
--2-2-2-2-2-2-2-2-2-2-2-2-2-2-2-2-2-2-2-2-2-2-2-2-2-2-2-2-2-2-2-2-|
------------------------------------------------------------------|


  T T T T T T T T T T T T T T T T T T T T T T T T E   E      E  S S E  S S E  S S E  S S
----------------------------------------------------------|------------------------------|
--------------------------------------------------7\------|------------------------------|
--3-3-3-3-3-3-3-3-3-3-3-3-3-3-3-3-5-5-5-5-5-5-5-5-----2/--|--7--7-7-7--7-7-7--7-7-7--7-7-|
----------------------------------------------------------|------------------------------|


  E  S S E  S S E  S S E  E     E  S S E  S S E  S S E  S S    E  S S E  S S E  S S E  E
-----------------------------|------------------------------|-----------------------------|
-----------------------------|------------------------------|-----------------------------|
--7--7-7-7--7-7-7--7-7-7--7--|------------------------------|-----------------------------|
-----------------------------|--7--7-7-7--7-7-7--7-7-7--7-7-|--7--7-7-7--7-7-7--7-7-7--7--|


  E  S S E  S S E  S S E  S S    E  S S E  S S E  S S E  E     E  S S E  S S E  S S E  E
------------------------------|-----------------------------|-----------------------------|
------------------------------|-----------------------------|-----------------------9-----|
--7--7-7-7--7-7-7--7-7-7--7-7-|--7--7-7-7--7-7-7--7-7-7--7--|-----------------------------|
------------------------------|-----------------------------|--7--7-7-7--7-7-7--7-7----7--|


  E  S S E  S S E  S S E  E     E  S S E  S S E  S S E  S S    E  S S E  S S E  S S E  E
-----------------------------|------------------------------|-----------------------------|
-----------------------9-----|------------------------------|-----------------------------|
-----------------------------|--7--7-7-7--7-7-7--7-7-7--7-7-|--7--7-7-7--7-7-7--7-7-7--7--|
--7--7-7-7--7-7-7--7-7----7--|------------------------------|-----------------------------|


  E  S S E  S S E  S S E  S S    E  S S E  S S E  S S E  E     E  S S E  S S E  S S E  S S
------------------------------|-----------------------------|------------------------------|
------------------------------|-----------------------------|------------------------------|
--3--3-3-3--3-3-3--3-3-3--3-3-|--3--3-3-3--3-3-3--3-3-3--3--|------------------------------|
------------------------------|-----------------------------|--3--3-3-3--3-3-3--3-3-3--3-3-|


  E  S S E  S S E  S S E  E     E  S S E  S S E  S S E  S S    E  S S E  S S E  S S E  E
-----------------------------|------------------------------|-----------------------------|
-----------------------------|------------------------------|-----------------------------|
-----------------------------|--5--5-5-5--5-5-5--5-5-5--5-5-|--5--5-5-5--5-5-5--5-5-5--5--|
--3--3-3-3--3-3-3--3-3-3--3--|------------------------------|-----------------------------|


  E  S S E  S S E  S S E  S S    E  S S E  S S E  S S E  E     E  S S E  S S E  S S E  S S
------------------------------|-----------------------------|------------------------------|
------------------------------|-----------------------------|------------------------------|
--7--7-7-7--7-7-7--7-7-7--7-7-|--7--7-7-7--7-7-7--7-7-7--7--|--7--7-7-7--7-7-7--7-7-7--7-7-|
------------------------------|-----------------------------|------------------------------|


  E  S S E  S S E  S S E  E     E  S S E  S S E  S S E  S S    E  S S E  S S E  S S E  E
-----------------------------|------------------------------|-----------------------------|
-----------------------------|------------------------------|-----------------------------|
--7--7-7-7--7-7-7--7-7-7--7--|--3--3-3-3--3-3-3--3-3-3--3-3-|--3--3-3-3--3-3-3--3-3-3--3--|
-----------------------------|------------------------------|-----------------------------|


  E  S S E  S S E  S S E  S S    E  S S E  S S E  S S E  E     E  S S E  S S E  S S E  S S
------------------------------|-----------------------------|------------------------------|
------------------------------|-----------------------------|------------------------------|
------------------------------|-----------------------------|--5--5-5-5--5-5-5--5-5-5--5-5-|
--3--3-3-3--3-3-3--3-3-3--3-3-|--3--3-3-3--3-3-3--3-3-3--3--|------------------------------|


  E  S S E  S S E  S S E  E     E  S S E  S S E  S S E  S S    E  S S E  S S Q    Q
-----------------------------|------------------------------|----------------9----------|
-----------------------------|------------------------------|---------------------9\----|
--5--5-5-5--5-5-5--5-5-5--5--|--7--7-7-7--7-7-7--7-7-7--7-7-|--7--7-7-7--7-7------------|
-----------------------------|------------------------------|---------------------------|


  E  S S E  S S E  S S E  E     E  S S E  S S E  S S E  E     E  S S E  S S E  S S E  S S
-----------------------------|-----------------------------|------------------------------|
-----------------------------|-----------------------------|------------------------------|
--3--3-3-3--3-3-3--3-3-3--3--|--5--5-5-5--5-5-5--5-5-5--5--|--7--7-7-7--7-7-7--7-7-7--7-7-|
-----------------------------|-----------------------------|------------------------------|


  E  S S E  S S E  S S E  E     E  S S E  S S E  S S E  E     E  S S E  S S E  S S E  E
-----------------------------|-----------------------------|-----------------------------|
-----------------------------|-----------------------------|-----------------------------|
--7--7-7-7--7-7-7--7-7-7--7--|--3--3-3-3--3-3-3--3-3-3--3--|--5--5-5-5--5-5-5--5-5-5--5--|
-----------------------------|-----------------------------|-----------------------------|


  E  S S E  S S E  S S E  S S    E  S S E  S S E  S S E  E     E  S S E  S S E  S S E  E
------------------------------|-----------------------------|-----------------------------|
------------------------------|-----------------------------|-----------------------------|
--7--7-7-7--7-7-7--7-7-7--7-7-|--7--7-7-7--7-7-7--7-7-7--7--|--3--3-3-3--3-3-3--3-3-3--3--|
------------------------------|-----------------------------|-----------------------------|


  E  S S E  S S E  S S Q       E  S S E  S S E  S S E  S S    E  S S Q    Q    E  E
----------------------------|------------------------------|---------9----9----------|
----------------------------|------------------------------|-------------------------|
--5--5-5-5--5-5-5--5-5-5----|--7--7-7-7--7-7-7--7-7-7--7-7-|--7--7-7-----------7--7--|
----------------------------|------------------------------|-------------------------|


  E  S S E  S S E  S S E  E     E  S S E  S S E  S S E  E     E  S S E  S S E  S S E  S S
-----------------------------|-----------------------------|------------------------------|
-----------------------------|-----------------------------|------------------------------|
--3--3-3-3--3-3-3--3-3-3--3--|--5--5-5-5--5-5-5--5-5-5--5--|--7--7-7-7--7-7-7--7-7-7--7-7-|
-----------------------------|-----------------------------|------------------------------|


  E  S S E  S S E  S S Q        E  S S E  S S E  S S E  E     E  S S E  S S E  S S E  E
-----------------------9\----|-----------------------------|-----------------------------|
-----------------------------|-----------------------------|-----------------------------|
--7--7-7-7--7-7-7--7-7-------|--3--3-3-3--3-3-3--3-3-3--3--|--5--5-5-5--5-5-5--5-5-5--5--|
-----------------------------|-----------------------------|-----------------------------|


  E  S S E  S S E  S S E  S S    E  S S E  S S E  S S E  E     H        E  E  E  E
------------------------------|--------------------------9--|-----------------------|
------------------------------|-----------------------9-----|-----------------------|
--7--7-7-7--7-7-7--7-7-7--7-7-|--7--7-7-7--7-7-7--7-7-------|--3--------L--0--3--5--|
------------------------------|-----------------------------|-----------------------|


  H        E  E  E   E     W                   W
------------------------|-------------------|-------------------|
------------------------|--9----------------|--L----------------|
--5--------L-----5S--7--|--7----------------|--L----------------|
--------------7---------|-------------------|-------------------|


  Q     Q    H
------------------------------------------------------||
------------------------------------------------------||
--7\--------------------------------------------------||
------------------------------------------------------||


Duration Legend
---------------
W - whole
H - half
Q - quarter
E - 8th
S - 16th
T - 32nd
X - 64th
. - note dotted
|-n-|  - n-tuplets


Tablature Legend
----------------
L - tied note
x - dead note
g - grace note
(n) - ghost note
> - accentuded note
NH - natural harmonic
AH - artificial harmonic
TH - tapped harmonic
SH - semi harmonic
PH - pitch harmonic
h - hammer on
p - pull off
b - bend
br - bendRelease
pb - preBend
pbr - preBendRelease
brb - bendReleaseBend
\n/ - tremolo bar dip
\n - tremolo bar dive
-/n - tremolo bar Release up
/n\ - tremolo bar inverted dip
/n - tremolo bar return
-\n - tremolo bar Release down
S - shift slide
s - legato slide
/ -  slide into from below or out of upwards
\ -  slide into from above or out of downwards
~ - vibrato
W - wide vibrato
tr - trill
TP - tremolo picking
T - tapping
S - slap
P - pop
< - fade in
^ - brush up
v - brush down
comments
We did not receive enough feedback on this tab! Please rate:
print report bad tab
1 2 3 4 5
I want to post or [tab]
guest
You may want to rate the tab now too:
select rating
Please do not post tabs as comments. Select "correction" instead!