Oops, an error
Loading. Please wait.

Diamonds And Rust Tab

ver1
ver1

Intro

Solo

Whole song

More versions @911Tabs.com
23,814 views 42 this week
3 commentsread comments
1 2 3 4 5
accurate
x 8
Autoscroll
+/-
esc
set tempo
stop
Contributor
WARNING: You are trying to view
                                    content from Ultimate-Guitar.com
                                    in an unauthorized application,
                                    which is prohibited.

                                    Please use an official Ultimate
                                    Guitar Tabs application for iPhone,
                                    iPad or Android to access legitimate
                                    chords, guitar, bass, and drum tabs
                                    from Ultimate-Guitar.com database.

                                    Type "ultimate guitar tabs" in Apple
                                    App Store's or Android Market's
                                    search to find the application.
Band:  Judas Priest
Album: Sin After Sin
Song:  Diamonds And Rust

Copyright (c)  (CBS) (1977)
Version 1.0 - (25/02/05)

Transcribed By: Steve
Email:          stephen.elvidge1@ntlworld.com


.  - palm mute           /  - slide up to
\  - slide down to       ~  - vibrato
h  - hammer on           b  - Bend
p  - pull off            Suffixes for bend
t  - tap                 f  - full bend    h - half bend
ph - pinched harmonic    q  - quarter bend t - tap bend
*  - see comment         ^  - Hold bend    r release bend
                         pb - pre bend
x  - Stuccatto           ~  - vibrato bend
,  - slight palm mute    () - ghost note, sustained note
"  - tremolo note        <> - Trill

Tunning E A D G B E
 
 Intro

  Guitar 1
E[------------------------------|
B[------------------------------|
G[------------------------------|
D[------------------------------|
A[-7-7-7-7777-77-7-7-7-7777-77--|
E[-0-0-0-0000-00-0-0-0-0000-00--|
 [Guitar 2
E[------------------------------|
B[-------------------7----8-----|
G[-------------------7----7-----|
D[-------------------7----9-----|
A[------------------------------|
E[------------------------------|

 Main Riff
 Guitar 1
   [------------------------PM----------------------------]
E[----------------------------------------------------------|
B[----------------------------------------------------------|
G[----------------------------------------------------------|
D[----------------------------------------------------------|
A[-7-7-7-7777-77-7-7-7-7777-77-9-9-9-9999-99-9-9-9-9999-99--|
E[-0-0-0-0000-00-0-0-0-0000-00-7-7-7-7777-77-7-7-7-7777-77--|
 [Guitar 2
E[----------------------------------------------------------|
B[----------------------------------------------------------|
G[----------------------------------------------------------|
D[-9---------(9)---------------9--------------9-------------|
A[-7---------(7)---------------9--------------9-------------|
E[-0---------(0)---------------7--------------7-------------|
 [Guitar 3
E[----------------------------------------------------------|
B[-8-------------8p7----8p7----7--------------7-------------|
G[-9-------------7-7----7-7----9--------------8-------------|
D[-9-------------9-9----9-9----9--------------9-------------|
A[----------------------------------------------------------|
E[----------------------------------------------------------|

 Guitar 1
   [------------------------PM----------------------------]
E[----------------------------------------------------------|
B[----------------------------------------------------------|
G[----------------------------------------------------------|
D[----------------------------------------------------------|
A[-7-7-7-7777-77-7-7-7-7777-77-9-9-9-9999-99-9-9-9-9999-99--|
E[-0-0-0-0000-00-0-0-0-0000-00-7-7-7-7777-77-7-7-7-7777-77--|
 [Guitar 2
E[----------------------------------------------------------|
B[----------------------------------------------------------|
G[----------------------------------------------------------|
D[-9---------(9)---------------9--------------9-------------|
A[-7---------(7)---------------9--------------9-------------|
E[-0---------(0)---------------7--------------7-------------|
 [Guitar 3
E[----------------------------------------------------------|
B[-8-------------8p7----8p7----7--------------7-------------|
G[-9-------------7-7----7-7----9--------------8-------------|
D[-9-------------9-9----9-9----9--------------9-------------|
A[----------------------------------------------------------|
E[----------------------------------------------------------|
 [Guitar 4                                     ~~~~~~~~~~~~
E[----------------------------------------------------------|
B[----------------------------------------------------------|
G[--------------------------------------------12------------|
D[----------------------------------------------------------|
A[----------------------------------------------------------|
E[----------------------------------------------------------|

 Verse

  Guitar 1
   [------------------------PM----------------------------]
E[----------------------------------------------------------|
B[----------------------------------------------------------|
G[----------------------------------------------------------|
D[-----------------------------5-5-5-5555-55-5-5-5-5555-55--|
A[-7-7-7-7777-77-7-7-7-7777-77-3-3-3-3333-33-3-3-3-3333-33--|
E[-0-0-0-0000-00-0-0-0-0000-00------------------------------|
 [Guitar 2
E[----------------------------------------------------------|
B[-8-----------(8)------------------------------------------|
G[-9-----------(9)-------------5--------------(5)-----------|
D[-9-----------(9)-------------5--------------(5)-----------|
A[-7-----------(7)-------------3--------------(3)-----------|
E[-0-----------(0)------------------------------------------|

  Guitar 1
   [------------------------PM----------------------------]
E[----------------------------------------------------------|
B[----------------------------------------------------------|
G[----------------------------------------------------------|
D[-----------------------------7-7-7-7777-77-7-7-7-7777-77--|
A[-5-5-5-5555-55-5-5-5-5555-55-5-5-5-5555-55-5-5-5-5555-55--|
E[-3-3-3-3333-33-3-3-3-3333-33------------------------------|
 [Guitar 2
E[----------------------------------------------------------|
B[----------------------------------------------------------|
G[-----------------------------7--------------(7)-----------|
D[-5-----------(5)-------------7--------------(7)-----------|
A[-5-----------(5)-------------5--------------(5)-----------|
E[-3-----------(3)------------------------------------------|

  Guitar 1
   [------------------------PM----------------------------]
E[----------------------------------------------------------|
B[----------------------------------------------------------|
G[----------------------------------------------------------|
D[----------------------------------------------------------|
A[-7-7-7-7777-77-7-7-7-7777-77-7-7-7-7777-77-7-7-7-7777-77--|
E[-0-0-0-0000-00-0-0-0-0000-00-0-0-0-0000-00-0-0-0-0000-00--|
 [Guitar 2
E[----------------------------------------------------------|
B[------------------------7---------------------------8-----|
G[------------------------7---------------------------7-----|
D[-9---------(9)----------9----9--------(9)-----------9-----|
A[-7---------(7)---------------7--------(7)-----------------|
E[-0---------(0)---------------0--------(0)-----------------|


 Chorus

 Both guitars
E-----------------------------------------------------------|
B-----------------------------------------------------------|
G-5--------(5)-----------------7--------(7)-----------------|
D-5--------(5)-----------------7--------(7)-----------------|
A-3--------(3)---------0--3--5-5--------(5)-----------10-9--|
E--------------------------------------------------7--------|

  Guitar 1
   [------------------------PM----------------------------]
E[----------------------------------------------------------|
B[----------------------------------------------------------|
G[----------------------------------------------------------|
D[----------------------------------------------------------|
A[-7-7-7-7777-77-7-7-7-7777-77-7-7-7-7777-77-7-7-7-7777-77--|
E[-0-0-0-0000-00-0-0-0-0000-00-0-0-0-0000-00-0-0-0-0000-00--|
 [Guitar 2
E[----------------------------------------------------------|
B[----------------------------------------------------------|
G[----------------------------------------------------------|
D[-9----------(9)--------------9----------(9)---------------|
A[-7----------(7)--------------7----------(7)---------------|
E[-0----------(0)--------------0----------(0)---------------|Rpt

 
 Interlude

  B                          A
E-------------------------------------------------------------------|
B-------------------------------------------------------------------|
G-------------------------------------------------------------------|
D-4------------(4)--------------------------------------------------|
A-2------------(2)--------------------------------------------------|
E-------------------------------------------------------------------|
  B                          A                             ~~~~~~
E-------------------------------------------------------------------|
B-------------------------------------------------------------------|
G---------------------------------------2/4-5/4/7b\2/4\7\5\4--------|
D-------------------------------------------------------------------|
A-------------------------------------------------------------------|
E-------------------------------------------------------------------|

  B                          A
E-------------------------------------------------------------------|
B----------------------------15fb----15b13--------------------------|
G------------------------------------------12\8-9-------------------|
D-------------------------------------------------10\---------------|
A-------------------------------------------------------------------|
E-------------------------------------------------------------------|
  C                          G                                    ~~
E------------------------------------------------15-13br13p12p10-12-|
B------------------------------------------8/-/15-------------------|
G------------------------------4-5-------7--/-----------------------|
D----------------------------3-----3-3/9----/-----------------------|
A-------------------------------------------------------------------|
E-------------------------------------------------------------------|
   C                          B                   
  ~~~~~~~~~~~~~~~~~~              ~~~~~~~~~~~~~~                ~~~~
E[-(12)--------------12-14-15-17fb--------------------r15-14-10-----|
B[-------------------------------------------------------------12---|
G[------------------------------------------------------------------|
D[------------------------------------------------------------------|
A[------------------------------------------------------------------|
E[------------------------------------------------------------------|
 [Guitar 2
E[------------------------------------------------------------------|
B[------------------------------------------------------------------|
G[------------------------------------------------------------------|
D[----------------------------4--------(4)--------4--------(4)------|
A[--------------------------2-2--------(2)--------2--------(2)------|
E[------------------------------------------------------------------|

  Guitar 1                     ~~~~~~~~~~~~~~~~~~~~~~~~~~~~
E[------------------------------------------------------------------|
B[------------------------------------------------------------------|
G[------0----------0------------------------------------------------|
D[--------2----------2-------/4------------------(4)----------------|
A[----------3----------3--------------------------------------------|
E[------------------------------------------------------------------|
 [Guitar 2
E[------------------------------------------------------------------|
B[------------------------------------------------------------------|
G[------------------------------------------------------------------|
D[/5--------(5)--------------/7--------(5)--------------------------|
A[/3--------(3)-------------5/5--------(3)--------------------------|
E[------------------------------------------------------------------|

 Fill during pause

E-------------|
B-------------|
G-------------|
D-/10-9-7-9---|
A-------------|
E-------------|

 Rpt Main Riff with note below
  ~~~~~~~~~~~~~~~~~~~~~~~~~~~~~~~~~~~~~ to feed back
E------------------------------------------------------------|
B------------------------------------------------------------|
G-9-----------------------(9)--------------------------------|
D------------------------------------------------------------|
A------------------------------------------------------------|
E------------------------------------------------------------|

 Rpt Verse
 Additional verse lead
  E                         C
                           ~~~~~~~~~~~~       ~~~~~~~~~~~~~~~
E--------------------------------------------------------------|
B---------------10-12--16fb----------r16p12-15fb---------------|
G-------9-11-12------------------------------------------------|
D--------------------------------------------------------------|
A--------------------------------------------------------------|
E--------------------------------------------------------------|
  G                         D
 ~~~~~~~~~          ~~~ ~~~~~~~~~~    ~~~         ~~~~~~~~~~~~~        
E--------------------------------------------------------------|
B-------r15p13-15-12----------------10fbr10-12p10\8------------|
G----------------------12----------------------------11--9--\--|
D--------------------------------------------------------------|
A--------------------------------------------------------------|
E--------------------------------------------------------------|
  E                         C
                        ~~~~~~~~~~~~~~         ~~~~~~~~~~~~~~~~
E--------------------------------------------------------------|
B--------------10-12--15fb-----------15fbrp12-15fb-------------|
G------9-11-12-------------------------------------------------|
D--------------------------------------------------------------|
A--------------------------------------------------------------|
E--------------------------------------------------------------|
  G                         D
 ~~~~~~~~~~           ~~~ ~~~~~~~~~~    ~~~~    ~~~~~~~~~~~~~~          
E--------------------------------------------------------------|
B---------pb15r13-15-12---------------10fb10-12\8--------------|
G------------------------12------------------------11----------|
D--------------------------------------------------------------|
A--------------------------------------------------------------|
E--------------------------------------------------------------|
  E
    h~~~~~~~~~~~~~~~~~~~~~~~~~~~~~~~~~~~~
E--------------------------------------------------------------|
B--------------------------------------------------------------|
G-7-9--------------(9)-----------------------------------------|
D--------------------------------------------------------------|
A--------------------------------------------------------------|
E--------------------------------------------------------------|

 Rpt Chorus 6 X

 Last time

E-----------------------------------------------------------|
B-----------------------------------------------------------|
G-5----------------------------7----------------------------|
D-5----------------------------7----------------------------|
A-3--------------------0--3--5-5----------------------10-9--|
E--------------------------------------------------7--------|

E----------------------------------------------------|
B-----------------------------------------------8\---|
G-----------------------------------------------9\---|
D-----------------------------------------------9\---|
A-2-2-2-2-2-2-2-2-2-2-2-2-2--2------(2)---------7\---|
E-0-0-0-0-0-0-0-0-0-0-0-0-0--0------(0)--------------|




END
3 comments total.
0 reply
shredder_666 wrote on December 7 2006, 10:47 am

awesome!

0 reply
Ougles311 wrote on March 13 2008, 09:08 am

Great song, with a great tab to go with it! Nice Job!

0 reply
keripurpura wrote on July 12 2008, 02:56 pm

Licks are not right...

I want to post or [tab]
guest
You may want to rate the tab now too:
select rating
Please do not post tabs as comments. Select "correction" instead!