Oops, an error
Loading. Please wait.

Diamonds And Rust Tab

ver4
ver4

Intro

Solo

Whole song

More versions @911Tabs.com
4,825 views 1 this week
no commentswrite comment
1 2 3 4 5
worth learning
x 2
Autoscroll
+/-
esc
set tempo
stop
Contributor
Difficulty
Tabbers playing skills
intermediate
advanced ++
WARNING: You are trying to view
                                    content from Ultimate-Guitar.com
                                    in an unauthorized application,
                                    which is prohibited.

                                    Please use an official Ultimate
                                    Guitar Tabs application for iPhone,
                                    iPad or Android to access legitimate
                                    chords, guitar, bass, and drum tabs
                                    from Ultimate-Guitar.com database.

                                    Type "ultimate guitar tabs" in Apple
                                    App Store's or Android Market's
                                    search to find the application.
-------------------------------------------------------------------------------
                             DIAMONDS AND RUST - Judas Priest
-------------------------------------------------------------------------------
Tabbed by: Isaias Garcia

Album: Unleashed In The East (live)

Tuning: Standard


Guitar - K.K. Downing

     W                   W                   W                   W                 
E||-------------------|-------------------|-------------------|-------------------|
B||-------------------|-------------------|-------------------|-------------------|
G||-------------------|-------------------|-------------------|-------------------|
D||-------------------|-------------------|-------------------|-------------------|
A||-------------------|-------------------|-------------------|-------------------|
E||-------------------|-------------------|-------------------|-------------------|


  W                   W                   W                   W                   W                 
-------------------|-------------------|-------------------|-------------------|-------------------|
-------------------|-------------------|-------------------|-------------------|-------------------|
-------------------|-------------------|-------------------|-------------------|-------------------|
-------------------|-------------------|-------------------|-------------------|-------------------|
-------------------|-------------------|-------------------|-------------------|-------------------|
-------------------|-------------------|-------------------|-------------------|-------------------|


                                      PM                                                    
  W                   H.           E  E     E  E  E  E  E  E  E  E     H.           E  S S  
-------------------|---------------------|--------------------------|----------------------|
-------------------|---------------------|--8--7--------8--7--------|----------------------|
-------------------|---------------------|--9--7--------9--7--------|----------------------|
-------------------|--9------------L-----|--------------------9--7--|----------------------|
-------------------|--7------------L-----|--------------------7--5--|--9------------L--9-9-|
-------------------|--0------------L--0--|-----------0--------------|--7------------L--7-7-|


                                        PM                                                      
  H.           E  E     H.           E  E     E  E  E  E  E  E  E  S S    Q    H        E  S S  
---------------------|---------------------|---------------------------|-----------------------|
---------------------|---------------------|--8--7--------8--7---------|-------0--------L------|
---------------------|---------------------|--9--7--------9--7---------|-----------------------|
---------------------|--9------------L-----|---------------------------|-----------------------|
--9------------L-----|--7------------L-----|-----------------------9-9-|--9----9--------L--9-9-|
--7------------L--0--|--0------------L--0--|-----------0-----------7-7-|--7----------------7-7-|


  H.           E  E     Q.     S S H           H        Q    Q       W                 
---------------------|----------------------|---------------------|-------------------|
---------------------|----------------------|---------------------|-------------------|
---------------------|----------------------|---------------------|-------------------|
--9------------L-----|--9------9-9-9--------|--9--------9----9----|--5----------------|
--9------------L-----|--7------7-7-7--------|--7--------7----7----|--3----------------|
--7------------L--0--|----------------------|---------------------|-------------------|


  H        Q    Q       Q.     S S H           H        Q    Q       H        H         
---------------------|----------------------|---------------------|--------------------|
---------------------|----------------------|---------------------|--------------------|
---------------------|----------------------|---------------------|--------------------|
--L--------5----5----|----------------------|---------------------|--7--------7--------|
--L--------3----3----|--5------5-5-5--------|--L--------5----5----|--5--------5--------|
---------------------|--3------3-3-3--------|--L--------3----3----|--------------------|


                                      |--3--|                                               
  Q    Q    Q    Q       H.           E  E  E     H.           Q       Q.     S S H         
----------------------|------------------------|--------------------|----------------------|
----------------------|------------------------|--------------------|----------------------|
----------------------|------------------------|--------------------|----------------------|
--L----7----7----7----|---------------x--x--x--|--------------------|--9------9-9-9--------|
--L----5----5----5----|--7------------x--x--x--|--7------------7----|--7------7-7-7--------|
----------------------|--0---------------------|--0------------0----|----------------------|


  Q    Q    Q    Q       Q.     S S H           H        Q    Q       Q.     S S H         
----------------------|----------------------|---------------------|----------------------|
----------------------|----------------------|---------------------|----------------------|
----------------------|----------------------|---------------------|----------------------|
--L----9----9----9----|--5------5-5-5--------|--L--------5----5----|----------------------|
--L----7----7----7----|--3------3-3-3--------|--L--------3----3----|--5------5-5-5--------|
----------------------|----------------------|---------------------|--3------3-3-3--------|


  H        Q    Q       H        H           H        Q    Q       H.           Q     
---------------------|--------------------|---------------------|--------------------|
---------------------|--------------------|---------------------|--9-----------------|
---------------------|--------------------|---------------------|--9------------7----|
---------------------|--7--------7--------|--L--------7----7----|--9------------7----|
--L--------5----5----|--5--------5--------|--L--------5----5----|--7-----------------|
--L--------3----3----|--------------------|---------------------|--0-----------------|


                                  PM                                                    
  W                   H        E  E  E  E     H.           Q       H.           E  S S  
-------------------|-----------------------|--------------------|----------------------|
-------------------|-----------------------|--------------------|----------------------|
--9----------------|-----------------------|--------------------|----------------------|
--9----------------|--5--------L-----------|--7------------5----|--9------------L--9-9-|
--7----------------|--3--------L--0--3--5--|--5------------L----|--7------------L--7-7-|
--0----------------|-----------------------|--------------------|--0-------------------|


                                  PM                                                          
  W                   H        E  E  E   E     H.           Q       E  S S Q    E  S S E  E   
-------------------|------------------------|--------------------|---------------------------|
-------------------|------------------------|--------------------|---------------------------|
-------------------|------------------------|---------------0----|---------------------------|
--9----------------|--5--------L------------|--7-----------------|--9--9-9-9----9--9-9-9--9--|
--7----------------|--3--------L--0--3s--5--|--5------------L----|--7--7-7-7----7--7-7-7--7--|
-------------------|------------------------|--------------------|---------------------------|


  W                   Q.     S S H           W                   H        H         
-------------------|----------------------|-------------------|--------------------|
-------------------|----------------------|-------------------|--------------------|
-------------------|----------------------|-------------------|--------------------|
--9----------------|--9------9-9-9--------|--7----------------|--9--------9--------|
--7----------------|--9------9-9-9--------|--7----------------|--9--------9--------|
-------------------|--7------7-7-7--------|--5----------------|--7--------7--------|


  H        H           H        Q.     S S    S S S S Q    S S S S S E.     H        S E  S Q     
--------------------|----------------------|-----------------------------|-----------------------|
--------------------|----------------------|-----------------------------|-----------------------|
--------------------|----------------------|----4-----4--------4-4-L-----|--2----------2--2-2----|
--7--------7--------|--5--------5------5-5-|------5------------------5---|--3----------3--3-3----|
--7--------7--------|--3--------3------3-3-|--------5--------5-----------|--3--------------------|
--5--------5--------|----------------------|--3------------3-------------|--1--------1-----------|


                                                              PM             PM              
  H        Q    E  E     H        H           H.           E  E     E  E  E  E  E  E  E  E   
----------------------|--------------------|---------------------|-----------------------0--|
----------------------|--------------------|---------------------|--8--7--------8--7--------|
----------------------|--------------------|---------------------|--9--7--------9--7--------|
--4--------4----4--4--|--5--------7--------|--9------------L-----|--------------------------|
--2--------2----2--2--|--3--------5--------|--7------------L-----|--------------------------|
----------------------|--------------------|------------------0--|-----------0--------------|


                                                               PM             PM              
  H.           E  S S    H.           E  E     H.           E  E     E  E  E  E  E  E  E  E   
----------------------|---------------------|---------------------|-----------------------0--|
----------------------|---------------------|---------------------|-----7--------8--7--------|
--9------------9--9-9-|--8------------------|---------------------|--7--7--------9--7--------|
--9------------9--9-9-|--9------------------|------------------9--|--------------------------|
--9------------9--9-9-|--9------------7-----|---------------------|--------------------------|
--7------------7--7-7-|--7------------5--0--|--0------------L-----|-----------0--------------|


  H.           E  S S    H.           Q       Q.     S S H           H        Q    Q     
----------------------|--------------------|----------------------|---------------------|
----------------------|--------------------|----------------------|---------------------|
--9------------9------|--8-----------------|----------------------|---------------------|
--9------------9------|--9------------7----|--9------9-9-9--------|--L--------9----9----|
--9------------9--9-9-|--9------------7----|--7------7-7-7--------|--L--------7----7----|
--7------------7--7-7-|--7-----------------|--0------0-0-0--------|--L--------0----0----|


  Q.     S S H           H        Q    Q       Q.     S S H           H        Q    Q     
----------------------|---------------------|----------------------|---------------------|
----------------------|---------------------|----------------------|---------------------|
----------------------|---------------------|----------------------|-----------0---------|
--5------5-5-5--------|--L--------5----5----|----------------------|---------------------|
--3------3-3-3--------|--L--------3----3----|--5------5-5-5--------|--L--------5----5----|
----------------------|---------------------|--3------3-3-3--------|--L--------3----3----|


  Q.     S S H           E  E  Q    Q    Q        H.           Q        W                  
----------------------|------------------------|--------------------|---------------------|
----------------------|------------------------|--------------------|--(9)----------------|
-------------7--------|--L----------7----------|--------------------|---9-----------------|
--7------7-7-7--------|--L--7--L---------7\----|--9------------9----|---------------------|
--5------5-5-5--------|--L---------------5\----|--7-----------------|---------------------|
----------------------|------------------------|--------------------|---------------------|


  Q.     S S H           H        Q    Q       Q.     S S H           H        Q    Q     
----------------------|---------------------|----------------------|---------------------|
----------------------|---------------------|----------------------|---------------------|
----------------------|---------------------|----------------------|---------------------|
--9------9-9-9--------|--L--------9----9----|--5------5-5-5--------|--5--------5----5----|
--7------7-7-7--------|--L--------7----7----|--3------3-3-3--------|--3--------3----3----|
--0------0-0-0--------|--L--------0----0----|----------------------|---------------------|


  Q.     S S H           H        Q    Q       Q.     S S H           H        Q    Q     
----------------------|---------------------|----------------------|---------------------|
----------------------|---------------------|----------------------|---------------------|
----------------------|---------------------|----------------------|---------------------|
----------------------|---------------------|--7------7-7-7--------|--L--------7----7----|
--5------5-5-5--------|--L--------5----5----|--5------5-5-5--------|--L--------5----5----|
--3------3-3-3--------|--L--------3----3----|----------------------|---------------------|


                                                         PM                       PM       
  H.           E  S S    W                   H        E  E  E   E     H        E  E  Q     
----------------------|-------------------|------------------------|----------------------|
----------------------|--9----------------|------------------------|----------------------|
----------------------|--9----------------|------------------------|----------------------|
--9------------9--9-9-|--9----------------|--5--------L------------|--7--------L-----7----|
--7------------7--7-7-|--7----------------|--3--------L--0--3s--5--|--5--------L--0--5----|
--0------------0--0-0-|--0----------------|------------------------|----------------------|


                                                          PM                      PM       
  H.           E  S S    H.           Q       H        E  E  E  E     H        E  E  Q     
----------------------|--------------------|-----------------------|----------------------|
----------------------|--9-----------------|-----------------------|----------------------|
----------------------|--9-----------------|-----------------------|-----------------0----|
--9------------9--9-9-|--9------------9----|--5--------L-----------|--7--------L----------|
--7------------7--7-7-|--7------------7----|--3--------L--0--3--5--|--5--------L--0-------|
----------------------|--------------------|-----------------------|----------------------|


                                                         PM                      PM       
  H.           E  S S    W                   H        E  E  E  E     H        E  E  Q     
----------------------|-------------------|-----------------------|----------------------|
----------------------|--9----------------|-----------------------|----------------------|
----------------------|--9----------------|-----------------------|-----------------0----|
--9------------9--9-9-|--9----------------|--5--------L-----------|--7--------L----------|
--7------------7--7-7-|--7----------------|--3--------L--0--3--5--|--5--------L--0-------|
----------------------|-------------------|-----------------------|----------------------|


                                                         PM                      PM       
  H.           E  S S    W                   H        E  E  E  E     H        E  E  Q     
----------------------|-------------------|-----------------------|----------------------|
----------------------|--9----------------|-----------------------|----------------------|
----------------------|--9----------------|-----------------------|-----------------0----|
--9------------9--9-9-|--9----------------|--5--------L-----------|--7--------L----------|
--7------------7--7-7-|--7----------------|--3--------L--0--3--5--|--5--------L--0-------|
----------------------|-------------------|-----------------------|----------------------|


                                                          PM                       PM       
  H.           E  S S    H        H           H        E  E  E   E     H        E  E  Q     
----------------------|--------------------|------------------------|----------------------|
----------------------|--------------------|------------------------|----------------------|
----------------------|-----------9--------|------------------------|-----------------0----|
--9------------9--9-9-|--9--------9--------|--5--------L------------|--7--------L----------|
--7------------7--7-7-|--7--------7--------|--3--------L--0--3s--5--|--5--------L--0-------|
----------------------|--------------------|------------------------|----------------------|


                                                        PM                       PM        
  H.           E.  S    W                   H        E  E  E   E     H        E  E  E  E   
---------------------|-------------------|------------------------|-----------------------|
---------------------|-------------------|------------------------|-----------------------|
---------------------|-------------------|------------------------|-----------------------|
--9------------L---9-|--L----------------|--5--------L------------|--7--------L-----5--4--|
--7------------L---7-|--L----------------|--3--------L--0--3s--5--|--5--------L--0--------|
---------------------|-------------------|------------------------|-----------------------|

 
  TP                                                                                            
  W                   W                   Q     Q    H                                          
-------------------|-------------------|------------------------------------------------------||
-------------------|-------------------|------------------------------------------------------||
--9----------------|-------------------|------------------------------------------------------||
--9----------------|--9----------------|--9\--------------------------------------------------||
--7----------------|--7----------------|--7\--------------------------------------------------||
-------------------|-------------------|------------------------------------------------------||




Guitar - Glenn Tipton
                                             PM PM PM PM PM PM PM PM PM PM PM PM  
     W                   W                   E  E  E  S  S  S  S  S  S  E  S  S   
E||-------------------|-------------------|--------------------------------------|
B||--0----------------|--L----------------|--------------------------------------|
G||-------------------|-------------------|--------------------------------------|
D||--9----------------|--L----------------|--------------------------------------|
A||--7----------------|--L----------------|--------------------------------------|
E||--0----------------|--L----------------|--0--0--0--0--0--0--0--0--0--0--0--0--|


  PM PM PM PM PM PM PM PM PM PM PM PM                                                
  E  S  S  E  S  S  E  S  S  E  S  S     Q    Q    Q    Q       Q    Q    Q    Q     
--------------------------------------|----------------------|----------------------|
--------------------------------------|----------------------|----------------------|
--------------------------------------|----------------------|----------------------|
--------------------------------------|----------------------|----------------------|
--------------------------------------|--9-------------------|--9-------------------|
--0--0--0--0--0--0--0--0--0--0--0--0--|--7-------------------|--7-------------------|


              PM PM PM PM    PM PM PM PM PM PM PM PM PM PM PM PM PM PM                         
  H        E  E  E  S  S     S  S  S  S  E  S  S  S  S  S  S  E  S  S     Q    Q    Q    Q     
--------------------------|--------------------------------------------|----------------------|
--0-----------------------|--------------------------------------------|----------------------|
--------------------------|--------------------------------------------|----------------------|
--9-----------------------|--------------------------------------------|----------------------|
--7--------L--------------|--------------------------------------------|--9-------------------|
--0--------L--0--0--0--0--|--0--0--0--0--0--0--0--0--0--0--0--0--0--0--|--7-------------------|


                                                                      PM                         
  Q    Q    Q    Q       Q    Q    Q    Q       E  E  E  E  E   E  E  E     Q    H        E  E   
----------------------|-------0----0---------|---------------------------|----------------------|
----------------------|--0----0----0---------|--------------8p--7--------|----------------------|
----------------------|----------------------|-----7--------9---7--------|----------------------|
----------------------|--9-------------------|--9--7--------9p--7--------|----------------------|
--5---------7---------|--7-------------------|--7------------------------|-------9--------L-----|
--3---------5---------|----------------------|-----------0------------7--|--7----------------7--|


                                                                  PM                          
  W                   Q    H.              E   E  E  E  E   E  E  E     E  E  E  E  H         
-------------------|--------------------|----------------------------|-----------------------|
-------------------|--------------------|--8p--7--------8p--7--------|-----------------------|
-------------------|-------9------------|--9---7--------9---7--------|-----------------------|
--9----------------|-------9------------|----------------------------|-----------9--L--------|
--9----------------|--7-----------------|----------------------------|--9--9--9--------------|
-------------------|--0-----------------|------------0------------7--|--7--7-----------------|


                                   PM PM PM PM PM PM    PM PM PM PM PM PM PM PM PM PM PM PM  
  E  E  E  E  H           H        E  S  S  E  S  S     E  S  S  E  S  S  E  S  S  E  S  S   
-----------------------|-----------------------------|--------------------------------------|
-----------------------|-----------------------------|--------------------------------------|
-----------------------|-----------------------------|--------------------------------------|
-----------9--L--------|--9--------------------------|--------------------------------------|
--9--9--9--------------|--7--------------------------|--------------------------------------|
--7--7-----------------|-----------0--0--0--0--0--0--|--0--0--0--0--0--0--0--0--0--0--0--0--|


           PM PM PM PM PM PM    PM PM PM PM PM PM PM PM PM PM PM PM             PM PM PM PM PM PM  
  H        E  S  S  E  S  S     E  S  S  E  S  S  E  S  S  E  S  S     H        E  S  S  E  S  S   
-----------------------------|--------------------------------------|-----------------------------|
-----------------------------|--------------------------------------|-----------------------------|
-----------------------------|--------------------------------------|-----------------------------|
--5--------------------------|--------------------------------------|-----------------------------|
--3--------3--3--3--3--3--3--|--3--3--3--3--3--3--3--3--3--3--3--3--|--5--------------------------|
-----------------------------|--------------------------------------|--3--------3--3--3--3--3--3--|


  PM PM PM PM PM PM PM PM PM PM PM PM             PM PM PM PM PM PM  
  S  S  S  S  E  S  S  E  S  S  E  E     H        E  S  S  E  S  S   
--------------------------------------|-----------------------------|
--------------------------------------|-----------------------------|
--------------------------------------|-----------------------------|
--------------------------------------|--7--------------------------|
--------------------------------------|--5--------5--5--5--5--5--5--|
--3--3--3--3--3--3--3--3--3--3--3--3--|-----------------------------|


  PM PM PM PM PM PM PM PM PM PM PM PM                                              
  E  S  S  E  S  S  E  S  S  E  S  S     Q    H        Q       H.            Q     
--------------------------------------|---------------------|---------------------|
--------------------------------------|-------0-------------|---------------12----|
--------------------------------------|---------------------|---------------12----|
--------------------------------------|--9-------------7----|--9------------------|
--5--5--5--5--5--5--5--5--5--5--5--5--|--7-------------7----|--7------------------|
--------------------------------------|--0------------------|--0------------------|


           PM PM PM PM PM PM    PM PM PM PM PM PM PM PM PM PM PM               PM PM PM PM PM PM  
  H        E  S  S  E  S  S     E  S  S  E  S  S  E  S  S  E  S  S    H        E  S  S  E  S  S   
-----------------------------|-------------------------------------|-----------------------------|
-----------------------------|-------------------------------------|-----------------------------|
-----------------------------|-------------------------------------|-----------------------------|
--9--------------------------|-------------------------------------|--5--------------------------|
--7--------------------------|-------------------------------------|--3--------3--3--3--3--3--3--|
-----------0--0--0--0--0--0--|--0--0--0--0--0--0--0--0--0--0--0--0-|-----------------------------|


  PM PM PM PM PM PM PM PM PM PM PM PM PM             PM PM PM PM PM PM  
  E  S  S  S  S  S  S  E  S  S  E  S  S     H        E  S  S  E  S  S   
-----------------------------------------|-----------------------------|
-----------------------------------------|-----------------------------|
-----------------------------------------|-----------------------------|
-----------------------------------------|-----------------------------|
--3--3--3--3--3--3--3--3--3--3--3--3--3--|--5--------------------------|
-----------------------------------------|--3--------3--3--3--3--3--3--|


  PM PM PM PM PM PM PM PM PM PM PM PM             PM PM PM PM PM PM  
  E  S  S  E  S  S  E  S  S  E  S  S     H        E  S  S  E  S  S   
--------------------------------------|-----------------------------|
--------------------------------------|-----------------------------|
--------------------------------------|-----------------------------|
--------------------------------------|--7--------------------------|
--------------------------------------|--5--------5--5--5--5--5--5--|
--3--3--3--3--3--3--3--3--3--3--3--3--|-----------------------------|


  PM PM PM PM PM PM PM PM PM PM PM PM                                                               
  E  S  S  E  S  S  E  S  S  E  S  S     H.           Q       W                   W                 
--------------------------------------|--------------------|-------------------|-------------------|
--------------------------------------|--------------------|-------------------|-------------------|
--------------------------------------|---------------7----|-------------------|--5----------------|
--------------------------------------|--9------------7----|--9----------------|--5----------------|
--5--5--5--5--5--5--5--5--5--5--5--5--|--7-----------------|--7----------------|--3----------------|
--------------------------------------|--------------------|-------------------|-------------------|


  W                   H.           E  S S    W                   W                 
-------------------|----------------------|-------------------|-------------------|
-------------------|------------------9-9-|--9----------------|-------------------|
-------------------|------------------9-9-|--9----------------|--5----------------|
--7----------------|------------------9-9-|--9----------------|--5----------------|
--5----------------|--7------------L--7-7-|--7----------------|--3----------------|
-------------------|--0------------L------|-------------------|-------------------|


  W                   W                   W                   W                 
-------------------|-------------------|-------------------|-------------------|
-------------------|--9----------------|--9----------------|-------------------|
-------------------|--9----------------|--9----------------|-------------------|
--7----------------|--9----------------|--9----------------|-------------------|
--5----------------|--7----------------|--7----------------|-------------------|
-------------------|-------------------|-------------------|-------------------|


  H        S  S S S S S S S    W                     Q      E.     S     E   S  S   S  E.    
----------------------------|--------------------|------------------------------------------|
----------------------------|--------------------|--15b-----Lpb---15pbr--L--12--------------|
----------------------------|--------------------|--------------------------12--------------|
----------------5-5-7-7-5---|--------------------|-----------------------------13h-14-10\---|
-----------5h-7-----------7-|--7b----------------|------------------------------------------|
----------------------------|--------------------|------------------------------------------|


  H        E    E    Q       S   E  T T S S  S S E    S  S  Q       
--------------(12)---L----|-----------------------------15---------|
--------------------------|--------------------3----/15----18br----|
--------------------------|---------0-0-0-3h-4---0-----------------|
--------------------------|----------------------0-----------------|
--------------------------|----0g2---------------------------------|
--8-----------------------|----------------------------------------|


                       |---3---|                                                                    
   H         E.    S   E   E   E      Q      E.    S     S  E   S   E    E     Q.     E   H         
--------------------------14--15--|--17b----17b---17pbr--L-14--10h-12-------|----------------------|
--17--------17~----L/-17----------|----------------------------10h-12-------|----------------------|
----------------------------------|-----------------------------------------|----------------------|
----------------------------------|------------------------------------/16--|----------------------|
----------------------------------|-----------------------------------------|--7------7s--9--------|
----------------------------------|-----------------------------------------|----------------------|


                  PM                                                                         
  H.           E  E     E  E  E  E  E  E  E  E     Q    Q    Q.     E     H.           Q     
---------------------|-----------------------0--|-------0----0---------|--------------------|
---------------------|--8--7--------8--7--------|-------0----0---------|--------------------|
---------------------|--9--7--------9--7--------|----------------------|--------------------|
--9------------L-----|--------------------------|----------------------|---------------7----|
--7------------L-----|--------------------------|--9-------------------|--9------------7----|
--0------------L--0--|-----------0--------------|--7----------------7--|--7-----------------|


                                                                     PM                      
  Q    Q    Q    Q       E  E  E  E  E  E  E  E     Q    Q    Q.     E     W                 
----------------------|--------------------------|----------------------|-------------------|
-------0----0---------|--8--7--------8--7--------|-------0----L---------|--0----------------|
----------------------|--9--7--------9--7--------|----------------------|-------------------|
--9-------------------|--------------------------|----------------------|-------------------|
--7-------------------|--------------------------|--9-------------------|--9----------------|
--0-------------------|-----------0-----------7--|--7----------------7--|--7----------------|


             |-----3-----|        |--3--|                                 |------3------|     
  H          Q     Q     Q        Q     H         H             H         Q       Q     Q     
------------------------------|-----------------------------|--------------------------------|
------------------------------|--------12--------15b--------|---L--------15br-----L----12----|
------------------11----12----|--14-------------------------|--------------------------------|
--9--------/14----------------|-----------------------------|--------------------------------|
--7---------------------------|-----------------------------|--------------------------------|
------------------------------|-----------------------------|--------------------------------|


                                    |-------3------|        |--3--|                   
   W                     H          Q        Q     Q        Q     H         H         
---------------------|----------------------------------|----------------------------|
--15b----------------|--15b--------15pbr-----L----13----|--15----12------------------|
---------------------|----------------------------------|------------------12--------|
---------------------|----------------------------------|----------------------------|
---------------------|----------------------------------|----------------------------|
---------------------|----------------------------------|----------------------------|


               |-------3------|        |--3--|                                               
   Q     Q     Q        Q     Q        Q     H          Q     Q        Q    H        E  S S  
-----------------------------------|--------------------------------|-----------------------|
--------------12pbr-----L----10----|--12----------------------------|-------------------9-9-|
---L\------------------------------|--------12~--------11-----------|-------9--------L--9-9-|
-----------------------------------|-------------------------12\----|--9----9--------L------|
-----------------------------------|--------------------------------|--7--------------------|
-----------------------------------|--------------------------------|-----------------------|


                                    |-----3-----|                                      
  Q    Q    Q    Q       Q    Q     Q     Q     Q        E   E   E   E    Q     Q      
----------------------|------------------------------|------19---L--22b---L----22b----|
--9-------------------|--9---------------19----20----|--22----------------------------|
--9---------9---------|--9---------21----------------|--------------------------------|
-------9---------9----|--9---------------------------|--------------------------------|
----------------------|--7---------------------------|--------------------------------|
----------------------|------------------------------|--------------------------------|


              |-------3------|                   |------3------|      
   H          Q        Q     Q        H          Q      Q      Q      
--22b--------22pbr-----L----19----|--22b--------22b----22b----22b----|
----------------------------------|----------------------------------|
----------------------------------|----------------------------------|
----------------------------------|----------------------------------|
----------------------------------|----------------------------------|
----------------------------------|----------------------------------|


              |-------3------|                                              |------3------|     
   H          Q        Q     Q        E   E   Q     H             H         Q       Q     Q     
--22b--------22pbr-----L----20----|--22--19---L---------------|------------19br-----L----17----|
----------------------------------|----------------20~--------|---L----------------------------|
----------------------------------|---------------------------|--------------------------------|
----------------------------------|---------------------------|--------------------------------|
----------------------------------|---------------------------|--------------------------------|
----------------------------------|---------------------------|--------------------------------|


   E   E   Q     H            W                   W                   W                 
--19-----------------------|-------------------|-------------------|-------------------|
------20---L----19~--------|--0----------------|--0----------------|-------------------|
---------------------------|--9----------------|--9----------------|--5----------------|
---------------------------|--9----------------|--9----------------|--5----------------|
---------------------------|--7----------------|-------------------|--3----------------|
---------------------------|--0----------------|-------------------|-------------------|


  W                   H.           E   E        Q     S   S  E    E   E   S  S  E    
-------------------|------------------------|---------------------------------------|
-------------------|------------------------|---------------------------------------|
--7----------------|--9---------------14br--|---L----14p-12-14b---L--12--14-12------|
--7----------------|--9---------------------|----------------------------------14\--|
--5----------------|--7---------------------|---------------------------------------|
-------------------|------------------------|---------------------------------------|


                                                               |------3-----|     |-----3-----|     
  W                   W                   W                    Q      Q     Q     Q     Q     Q     
-------------------|-------------------|-------------------|---------------------------------------|
-------------------|-------------------|-------------------|---------------------------------------|
--5----------------|--7----------------|--9----------------|--12b----------------------------------|
--5----------------|--7----------------|--9----------------|---------14----12----------------------|
--3----------------|--5----------------|--7----------------|---------------------14----13----12----|
-------------------|-------------------|-------------------|---------------------------------------|


                                                  PM PM PM PM PM PM PM PM  
  W                   W                   Q    E  S  S  E  S  S  E  S  S   
-------------------|-------------------|----------------------------------|
-------------------|-------------------|----------------------------------|
--5----------------|--7----------------|----------------------------------|
--5----------------|--7----------------|----------------------------------|
--3----------------|--5----------------|----------------------------------|
-------------------|-------------------|--0----L--0--0--0--0--0--0--0--0--|


  PM PM PM PM PM PM PM PM PM                                          
  E  E  E  S  S  E  E  E  E     W                   W                 
-----------------------------|-------------------|-------------------|
-----------------------------|-------------------|-------------------|
-----------------------------|--5----------------|--7----------------|
-----------------------------|--5----------------|--7----------------|
-----------------------------|--3----------------|--5----------------|
--0--0--0--0--0--0--0--0--0--|-------------------|-------------------|


          PM PM PM PM PM PM PM PM    PM PM PM PM PM PM PM PM PM PM PM PM                      
  Q    E  S  S  E  S  S  E  S  S     S  S  S  S  E  S  S  E  S  S  E  E     W                 
----------------------------------|--------------------------------------|-------------------|
----------------------------------|--------------------------------------|-------------------|
----------------------------------|--------------------------------------|--5----------------|
----------------------------------|--------------------------------------|--5----------------|
----------------------------------|--------------------------------------|--3----------------|
--0----L--0--0--0--0--0--0--0--0--|--0--0--0--0--0--0--0--0--0--0--0--0--|-------------------|


                               PM PM PM PM PM PM    PM PM PM PM PM PM PM PM PM PM PM PM  
  W                   H        E  S  S  E  S  S     S  S  S  S  E  S  S  E  S  S  E  E   
-------------------|-----------------------------|--------------------------------------|
-------------------|-----------------------------|--------------------------------------|
--7----------------|-----------------------------|--------------------------------------|
--7----------------|--9--------------------------|--------------------------------------|
--5----------------|--7--------------------------|--------------------------------------|
-------------------|--0--------0--0--0--0--0--0--|--0--0--0--0--0--0--0--0--0--0--0--0--|


  W                   W                   H.           Q       W                 
-------------------|-------------------|--------------------|-------------------|
-------------------|-------------------|---------------9----|--L----------------|
--5----------------|--7----------------|--9-----------------|-------------------|
--5----------------|--7----------------|--9-----------------|-------------------|
--3----------------|--5----------------|--7-----------------|-------------------|
-------------------|-------------------|--------------------|-------------------|

  
  Q     Q    H                                          
------------------------------------------------------||
------------------------------------------------------||
------------------------------------------------------||
--9\--------------------------------------------------||
--7\--------------------------------------------------||
------------------------------------------------------||




Duration Legend
---------------
W - whole
H - half
Q - quarter
E - 8th
S - 16th
T - 32nd
X - 64th
. - note dotted
|-n-|  - n-tuplets


Tablature Legend
----------------
L - tied note
x - dead note
g - grace note
(n) - ghost note
> - accentuded note
NH - natural harmonic
AH - artificial harmonic
TH - tapped harmonic
SH - semi harmonic
PH - pitch harmonic
h - hammer on
p - pull off
b - bend
br - bendRelease
pb - preBend
pbr - preBendRelease
brb - bendReleaseBend
\n/ - tremolo bar dip
\n - tremolo bar dive
-/n - tremolo bar Release up
/n\ - tremolo bar inverted dip
/n - tremolo bar return
-\n - tremolo bar Release down
S - shift slide
s - legato slide
/ -  slide into from below or out of upwards
\ -  slide into from above or out of downwards
~ - vibrato
W - wide vibrato
tr - trill
TP - tremolo picking
T - tapping
S - slap
P - pop
< - fade in
^ - brush up
v - brush down
comments
We did not receive enough feedback on this tab! Please rate:
print report bad tab
1 2 3 4 5
I want to post or [tab]
guest
You may want to rate the tab now too:
select rating
Please do not post tabs as comments. Select "correction" instead!