Oops, an error
Loading. Please wait.

Fire Burns Below Tab

642 views 6 this week
no commentswrite comment
1 2 3 4 5
excellent!
x 3
add to favorites launch autoscroll
font size
0
reset
Autoscroll
+/-
esc
set tempo
stop
Contributor
Difficulty
intermediate
WARNING: You are trying to view
                                    content from Ultimate-Guitar.com
                                    in an unauthorized application,
                                    which is prohibited.

                                    Please use an official Ultimate
                                    Guitar Tabs application for iPhone,
                                    iPad or Android to access legitimate
                                    chords, guitar, bass, and drum tabs
                                    from Ultimate-Guitar.com database.

                                    Type "ultimate guitar tabs" in Apple
                                    App Store's or Android Market's
                                    search to find the application.
-----------------------------------------------------------------------------
                                  

                  Fire Burns Below  - Judas Priest (GUITAR)
            
-----------------------------------------------------------------------------
Tabbed by: Scotto10

Tuning: standard tuning

=============================================================================

Guitar 1



                             E  E  E  E  H           H        H         
E||-------|-------|-------|-----------------------|--------------------|
B||-------|-------|-------|-----------1--L--------|--L-----------------|
G||-------|-------|-------|--------2--------------|--------------------|
D||-------|-------|-------|-----0-----------------|--------------------|
A||-------|-------|-------|-----------------------|--------------------|
E||-------|-------|-------|-----------------------|--------------------|


  E  E  E  E  H           H        H           E  E  E  E  H         
-----------------------|--------------------|-----------------------|
-----------1--L--------|--L-----------------|-----------1--L--------|
--------2--------------|--------------------|--------2--------------|
-----0-----------------|--------------------|-----0-----------------|
-----------------------|--------------------|-----------------------|
-----------------------|--------------------|-----------------------|


  H        H           E  E  E  E  H           H        H         
--------------------|-----------------------|--------------------|
--L-----------------|-----------1--L--------|--L-----------------|
--------------------|--------2--------------|--------------------|
--------------------|-----0-----------------|--------------------|
--------------------|-----------------------|--------------------|
--------------------|-----------------------|--------------------|


  E  E  E  E  H           H        H           E  E  E  E  H         
-----------------------|--------------------|-----------------------|
-----------1--L--------|--L-----------------|-----------1--L--------|
--------2--------------|--------------------|--------2--------------|
-----0-----------------|--------------------|-----0-----------------|
-----------------------|--------------------|-----------------------|
-----------------------|--------------------|-----------------------|


  H        H           E  E  E  E  H           H        H         
--------------------|-----------------------|--------------------|
--L-----------------|-----------1--L--------|--3--------3--------|
--------------------|--------2--------------|--2--------2--------|
--------------------|-----0-----------------|--0--------0--------|
--------------------|-----------------------|--------------------|
--------------------|-----------------------|--------------------|


  E  Q.     H           H        H           E  Q.     Q.     E   
---------------------|-----------2--------|----------------------|
--3--3------3--------|--3--------3--------|--3--3------3---------|
--0--2------2--------|--2--------2--------|--0--2------2---------|
--0--0------0--------|--0--------0--------|--0--0------0---------|
---------------------|--------------------|----------------------|
---------------------|--------------------|----------------------|


  H        H           H        H           H        H         
--1--------1--------|--0--------0--------|--------------------|
--1--------1--------|--1--------1--------|--3--------3--------|
--0--------0--------|--0--------0--------|--2--------2--------|
--------------------|--------------------|--0--------0--------|
--------------------|--------------------|--------------------|
--------------------|--------------------|--------------------|


  E  Q.     H           W                   E  Q    E  Q    E  E   
---------------------|-------------------|------------------------|
--3--3------3--------|--3----------------|--3--3-------3----3--3--|
--0--2------2--------|--2----------------|--0--2-------2----2--2--|
--0--0------0--------|--0----------------|--0--0----0--0----0--0--|
---------------------|-------------------|------------------------|
---------------------|-------------------|------------------------|


  Q    Q    H           E  E  E  E  Q    Q       Q    Q    E  Q.      
---------------------|------------------------|--1----1----1--1------|
--3----3----3--------|--L--3--3--3--3----3----|--1----1----1--1------|
--2----2----2--------|--L--2--2--0--2----2----|--0----0----0--0------|
--0----0----0--------|--L--0--0--0--0----0----|----------------------|
---------------------|------------------------|----------------------|
---------------------|------------------------|----------------------|


  Q    Q    Q    Q       Q    Q    E  Q.        E  Q.     H         
--0----0----0----0----|----------------------|---------------------|
--1----1----1----1----|--3----3----3--3------|--3--3------3--------|
--0----0----0----0----|--2----2----2--2------|--0--2------2--------|
----------------------|--0----0----0--0------|--0--0------0--------|
----------------------|----------------------|---------------------|
----------------------|----------------------|---------------------|


  W                   E  Q    E  Q    E  E     Q    Q    H         
-------------------|------------------------|---------------------|
--3----------------|--3--3-------3----3--3--|--3----3----3--------|
--2----------------|--0--2-------2----2--2--|--2----2----2--------|
--0----------------|--0--0----0--0----0--0--|--0----0----0--------|
-------------------|------------------------|---------------------|
-------------------|------------------------|---------------------|


  E  E  E  E  E  E  E   E     Q    Q    E  Q.        Q    Q    Q    Q     
---------------------------|--1----1----1--1------|--0----0----0----0----|
--L--3--3--3--3--3--3---3--|--1----1----1--1------|--1----1----1----1----|
--L--2--2--0--2--0--0h--2--|--0----0----0--0------|--0----0----0----0----|
--L--0--0--0--0--0--0---0--|----------------------|----------------------|
---------------------------|----------------------|----------------------|
---------------------------|----------------------|----------------------|


  Q    Q    E  Q    E     E  Q.     Q    Q       Q    Q    E  E  Q     
-----------------------|----------------------|--3----3----3--3--3----|
--3----3----3--3----3--|--3--3------3----3----|--1----1----1--1--1----|
--2----2----2--2----2--|--0--2------2----2----|--0----0----0--0--0----|
--0----0----0--0----0--|--0--0------0----0----|--0----0----0--0--0----|
-----------------------|----------------------|-----------------------|
-----------------------|----------------------|-----------------------|


  Q    Q.     Q    E     Q    Q    E  Q    E     E  Q    E  Q    E  E   
--3----3------L----L--|-----------------------|------------------------|
--1----1------L----L--|--3----3----3--3----3--|--3--3-------3----3--3--|
--0----0------L----L--|--2----2----2--2----2--|--0--2-------2----2--2--|
--0----0-----------0--|--0----0----0--0----0--|--0--0-------0----0--0--|
--------------3-------|-----------------------|------------------------|
----------------------|-----------------------|------------------------|


  Q    Q    E  Q    E     Q    H.              Q    Q    E  Q    E   
--3----3----3--3----3--|--3----3------------|-----------------------|
--1----1----1--1----1--|--1----1------------|--3----3----3--3----3--|
--0----0----0--0----0--|--0----0------------|--2----2----0--2----2--|
--0----0----0--0----0--|--0----0------------|--0----0----0--0----0--|
-----------------------|--------------------|-----------------------|
-----------------------|--------------------|-----------------------|


  E  Q    E  Q    E  E     Q    Q    E  Q    E     E  E  E  E  Q    E  E   
------------------------|--3----3----3--3----3--|--L--3--3--3--3----3--3--|
--L--3----3--3----3--3--|--3----3----3--3----3--|--L--3--3--3--3----3--3--|
--L--2----2--2----2--2--|--0----0----0--0----0--|--L--0--0--0--0----0--0--|
--L--0----0--0----0--0--|--0----0----0--0----0--|--L--0--0--0--0----0--0--|
------------------------|-----------------------|-------------------------|
------------------------|-----------------------|-------------------------|


  Q    Q    E  Q    E     E  E  H.              Q    Q    E  Q    E   
--3----3----3--3----3--|---------------------|-----------------------|
--3----3----3--3----3--|--2------------------|--3----3----3--3----3--|
--0----0----0--0----0--|--2------------------|--2----2----2--2----2--|
--0----0----0--0----0--|--2------------------|--0----0----0--0----0--|
-----------------------|---------------------|-----------------------|
-----------------------|---------------------|-----------------------|


  E  E  E  E  Q    E  E     Q    Q    E  E  Q       E  E  Q    Q    E  E   
-------------------------|--3----3----3--3--3----|--3--3--3----3----3--3--|
--3--3-----3--3----3--3--|--3----3----3--3--3----|--3--3--3----3----3--3--|
--0--2-----2--2----2--2--|--0----0----0--0--0----|--0--0--0----0----0--0--|
--0--0-----0--0----0--0--|--0----0----0--0--0----|--0--0--0----0----0--0--|
-------------------------|-----------------------|------------------------|
-------------------------|-----------------------|------------------------|


  Q    Q    E  E  Q       E  E  Q    Q    E  E     Q    Q    E  Q    E   
--3----3----3--3--3----|--3--3--3----3----3--3--|-----------------------|
--1----1----1--1--1----|--1--1--1----1----1--1--|--3----3----3--3----3--|
--0----0----0--0--0----|--0--0--0----0----0--0--|--2----2----2--2----2--|
--0----0----0--0--0----|--0--0--0----0----0--0--|--0----0----0--0----0--|
-----------------------|------------------------|-----------------------|
-----------------------|------------------------|-----------------------|


  E  E  E  E  Q    E  E     Q    H.              Q    Q.     Q    E   
-------------------------|--------------------|----------------------|
--3--3-----3--3----3--3--|--3----3------------|--L----L------3----3--|
--0--2-----2--2----2--0--|--2----2------------|--L----L------0----2--|
--0--0-----0--0----0--0--|--0----0------------|--L----L------0----0--|
-------------------------|--------------------|----------------------|
-------------------------|--------------------|----------------------|


  W                   E  E  E  E  E  E  E  E     Q    Q    E  Q.      
-------------------|--------------------------|--1----1----1--1------|
--3----------------|--L--3--3--3--3--3--3--3--|--1----1----1--1------|
--2----------------|--L--2--2--2--2--0--2--0--|--0----0----0--0------|
--0----------------|--L--0--0--0--0--0--0--0--|----------------------|
-------------------|--------------------------|----------------------|
-------------------|--------------------------|----------------------|


  Q    Q    Q    Q       Q    Q    E  Q.        E  Q.     H         
--0----0----0----0----|----------------------|---------------------|
--1----1----1----1----|--3----3----3--3------|--3--3------3--------|
--0----0----0----0----|--2----2----2--2------|--0--2------2--------|
----------------------|--0----0----0--0------|--0--0------0--------|
----------------------|----------------------|---------------------|
----------------------|----------------------|---------------------|


  Q    Q.     Q    E     E  E  E  E  Q    E  E     Q    Q    H         
----------------------|-------------------------|---------------------|
-------3------3----3--|--L--L--------3----3--3--|--3----3----3--------|
-------2------2----2--|--L--L--------2----0--2--|--2----2----2--------|
--0----0------0----0--|--L--0--0--0--0----0--0--|--0----0----0--------|
----------------------|-------------------------|---------------------|
----------------------|-------------------------|---------------------|


  E  E  Q    E  Q    E     Q    Q    E  Q.        Q    Q    Q    E  E   
------------------------|--1----1----1--1------|--0----0----0----0--0--|
--L--3--3----3--3----3--|--1----1----1--1------|--1----1----1----1--1--|
--L--2--0----2--0----2--|--0----0----0--0------|--0----0----0----0--0--|
--L--0--0----0--0----0--|----------------------|-----------------------|
------------------------|----------------------|-----------------------|
------------------------|----------------------|-----------------------|


  Q    Q    E  Q.        E  E  E  E  E  E  E  E     Q    Q    E  E  Q     
----------------------|--------------------------|--3----3----3--3--3----|
--3----3----3--3------|--L--3--3--3--3--3--3--3--|--1----1----1--1--1----|
--2----2----0--2------|--L--0--2--2--2--2--2--0--|--0----0----0--0--0----|
--0----0----0--0------|--L--0--0--0--0--0--0--0--|--0----0----0--0--0----|
----------------------|--------------------------|-----------------------|
----------------------|--------------------------|-----------------------|


  Q    Q.     Q    E     Q    Q    E  Q    E     E  Q    E  Q    E  E   
--3----3------L----L--|-----------------------|------------------------|
--1----1------L----L--|--3----3----3--3----3--|--L--3-------3----3--3--|
--0----0------L----L--|--2----2----2--2----2--|--L--2-------2----2--2--|
--0----0-----------0--|--0----0----0--0----0--|--L--0-------0----0--0--|
--------------3-------|-----------------------|------------------------|
----------------------|-----------------------|------------------------|


  Q    Q    E  Q    E     Q    H.              Q    Q    E  Q    E   
--3----3----3--3----3--|--3----3------------|-----------------------|
--1----1----1--1----1--|--1----1------------|--3----3----3--3----3--|
--0----0----0--0----0--|--0----0------------|--2----2----0--2----2--|
--0----0----0--0----0--|--0----0------------|--0----0----0--0----0--|
-----------------------|--------------------|-----------------------|
-----------------------|--------------------|-----------------------|


  E  E  E  E  H           Q    Q    E  Q    E     E  E  E  E  Q    E  E   
-----------------------|--3----3----3--3----3--|--L--3--3--3--3----3--3--|
--L--3--3--3--3--------|--3----3----3--3----3--|--L--3--3--3--3----3--3--|
--L--0--2--2--2--------|--0----0----0--0----0--|--L--0--0--0--0----0--0--|
--L--0--0--0--0--------|--0----0----0--0----0--|--L--0--0--0--0----0--0--|
-----------------------|-----------------------|-------------------------|
-----------------------|-----------------------|-------------------------|


  Q    Q    E  Q    E     E  E  H.              Q    Q    E  Q    E   
--3----3----3--3----3--|---------------------|-----------------------|
--3----3----3--3----3--|--2------------------|--3----3----3--3----3--|
--0----0----0--0----0--|--2------------------|--2----2----2--2----2--|
--0----0----0--0----0--|--2------------------|--0----0----0--0----0--|
-----------------------|---------------------|-----------------------|
-----------------------|---------------------|-----------------------|


  E  E  E  E  Q    E  E     Q    Q    E  Q    E     E  E  Q    Q    E  E   
-------------------------|--3----3----3--3----3--|--3--3--3----3----3--3--|
--3--3-----3--3----3--3--|--3----3----3--3----3--|--3--3--3----3----3--3--|
--0--2-----2--2----2--2--|--0----0----0--0----0--|--0--0--0----0----0--0--|
--0--0-----0--0----0--0--|--0----0----0--0----0--|--0--0--0----0----0--0--|
-------------------------|-----------------------|------------------------|
-------------------------|-----------------------|------------------------|


  Q    Q    E  Q    E     E  E  Q    Q    E  E     Q    Q    E  Q    E   
--3----3----3--3----3--|--3--3--3----3----3--3--|-----------------------|
--1----1----1--1----1--|--1--1--1----1----1--1--|--3----3----3--3----3--|
--0----0----0--0----0--|--0--0--0----0----0--0--|--2----2----0--2----0--|
--0----0----0--0----0--|--0--0--0----0----0--0--|--0----0----0--0----0--|
-----------------------|------------------------|-----------------------|
-----------------------|------------------------|-----------------------|


  E  E  E  Q    E  Q       E  E  E  E  H           H        H         
------------------------|-----------------------|--------------------|
--3--3-----3----3--3----|-----------1--L--------|--L-----------------|
--2--2-----2----2--2----|--------2--------------|--------------------|
--0--0-----0----0--0----|-----0-----------------|--------------------|
------------------------|-----------------------|--------------------|
------------------------|-----------------------|--------------------|


  E  E  E  E  H           H        H           E  E  E  E  H         
-----------------------|--------------------|-----------------------|
-----------1--L--------|--L-----------------|-----------1--L--------|
--------2--------------|--------------------|--------2--------------|
-----0-----------------|--------------------|-----0-----------------|
-----------------------|--------------------|-----------------------|
-----------------------|--------------------|-----------------------|


  E  E  E  E  H           E  E  E  E  H           E  E  E  E  H         
-----------------------|-----------------------|-----------------------|
-----------1--L--------|-----------1--L--------|-----------1--L--------|
--------3--------------|--------0--------------|--------2--------------|
-----0-----------------|-----2-----------------|-----3-----------------|
-----------------------|-----------------------|-----------------------|
-----------------------|-----------------------|-----------------------|


  E  E  E  E  H           E  E  E  E  H           E  E  E  E  H         
-----------------------|-----------------------|-----------------------|
-----------------------|-----------------------|-----------3--L--------|
-----------2--L--------|-----------0--L--------|-----------------------|
--------3--------------|--------2--------------|--------2--------------|
-----1-----------------|-----1-----------------|-----0-----------------|
-----------------------|-----------------------|-----------------------|


  E  E  E  E  H           E  E  E  E  H           E  E  E  E  H         
-----------------------|-----------------------|-----------------------|
-----------2--L--------|-----------1--L--------|-----------1--L--------|
-----------------------|--------2--------------|--------3--------------|
--------2--------------|-----0-----------------|-----0-----------------|
-----0-----------------|-----------------------|-----------------------|
-----------------------|-----------------------|-----------------------|


  E  E  E  E  H           E  E  E  E  H           E  E  E  E  H         
-----------------------|-----------------------|-----------------------|
-----------1--L--------|-----------1--L--------|-----------------------|
--------0--------------|--------2--------------|-----------2--L--------|
-----2-----------------|-----3-----------------|--------3--------------|
-----------------------|-----------------------|-----1-----------------|
-----------------------|-----------------------|-----------------------|


  E  E  E  E  H           E  E  E  E  H           E  E  E  E  H                 
-----------------------|-----------------------|-----------------------|-------|
-----------------------|-----------3--L--------|-----------2--L--------|-------|
-----------0--L--------|-----------------------|-----------------------|-------|
--------2--------------|--------2--------------|--------2--------------|-------|
-----1-----------------|-----0-----------------|-----0-----------------|-------|
-----------------------|-----------------------|-----------------------|-------|


-------|-------|-------|-------|-------|-------|-------|-------|-------|-------|
-------|-------|-------|-------|-------|-------|-------|-------|-------|-------|
-------|-------|-------|-------|-------|-------|-------|-------|-------|-------|
-------|-------|-------|-------|-------|-------|-------|-------|-------|-------|
-------|-------|-------|-------|-------|-------|-------|-------|-------|-------|
-------|-------|-------|-------|-------|-------|-------|-------|-------|-------|


-------|-------|-------|-------|-------|-------|-------|-------|-------|-------|
-------|-------|-------|-------|-------|-------|-------|-------|-------|-------|
-------|-------|-------|-------|-------|-------|-------|-------|-------|-------|
-------|-------|-------|-------|-------|-------|-------|-------|-------|-------|
-------|-------|-------|-------|-------|-------|-------|-------|-------|-------|
-------|-------|-------|-------|-------|-------|-------|-------|-------|-------|


                                                          Q    Q    E  E  Q     
-------|-------|-------|-------|-------|-------|-------|--3----3----3--3--3----|
-------|-------|-------|-------|-------|-------|-------|--1----1----1--1--1----|
-------|-------|-------|-------|-------|-------|-------|--0----0----0--0--0----|
-------|-------|-------|-------|-------|-------|-------|--0----0----0--0--0----|
-------|-------|-------|-------|-------|-------|-------|-----------------------|
-------|-------|-------|-------|-------|-------|-------|-----------------------|


  Q    Q.     Q    E     Q    Q    E  Q    E     E  Q    E  Q    E  E   
--3----3------L----L--|-----------------------|------------------------|
--1----1------L----L--|--3----3----3--3----3--|--3--3-------3----3--3--|
--0----0------L----L--|--2----2----2--2----2--|--0--2-------2----2--2--|
--0----0-----------0--|--0----0----0--0----0--|--0--0-------0----0--0--|
--------------3-------|-----------------------|------------------------|
----------------------|-----------------------|------------------------|


  Q    Q    E  Q    E     Q    H.              Q    Q    E  Q    E   
--3----3----3--3----3--|--3----3------------|-----------------------|
--1----1----1--1----1--|--1----1------------|--3----3----3--3----3--|
--0----0----0--0----0--|--0----0------------|--2----2----0--2----2--|
--0----0----0--0----0--|--0----0------------|--0----0----0--0----0--|
-----------------------|--------------------|-----------------------|
-----------------------|--------------------|-----------------------|


  E  Q    E  Q    E  E     Q    Q    E  Q    E     E  E  E  E  Q    E  E   
------------------------|--3----3----3--3----3--|--L--3--3--3--3----3--3--|
--L--3----3--3----3--3--|--3----3----3--3----3--|--L--3--3--3--3----3--3--|
--L--2----2--2----2--2--|--0----0----0--0----0--|--L--0--0--0--0----0--0--|
--L--0----0--0----0--0--|--0----0----0--0----0--|--L--0--0--0--0----0--0--|
------------------------|-----------------------|-------------------------|
------------------------|-----------------------|-------------------------|


  Q    Q    E  Q    E     E  E  H.              Q    Q    E  Q    E   
--3----3----3--3----3--|---------------------|-----------------------|
--3----3----3--3----3--|--2------------------|--3----3----3--3----3--|
--0----0----0--0----0--|--2------------------|--2----2----2--2----2--|
--0----0----0--0----0--|--2------------------|--0----0----0--0----0--|
-----------------------|---------------------|-----------------------|
-----------------------|---------------------|-----------------------|


  E  E  E  E  Q    E  E     Q    Q    E  E  Q       E  E  Q    Q    E  E   
-------------------------|--3----3----3--3--3----|--3--3--3----3----3--3--|
--3--3-----3--3----3--3--|--3----3----3--3--3----|--3--3--3----3----3--3--|
--0--2-----2--2----2--2--|--0----0----0--0--0----|--0--0--0----0----0--0--|
--0--0-----0--0----0--0--|--0----0----0--0--0----|--0--0--0----0----0--0--|
-------------------------|-----------------------|------------------------|
-------------------------|-----------------------|------------------------|


  Q    Q    E  E  Q       E  E  Q    Q    E  E     Q    Q    E  E  Q     
--3----3----3--3--3----|--3--3--3----3----3--3--|--3----3----3--3--3----|
--1----1----1--1--1----|--1--1--1----1----1--1--|--3----3----3--3--3----|
--0----0----0--0--0----|--0--0--0----0----0--0--|--0----0----0--0--0----|
--0----0----0--0--0----|--0--0--0----0----0--0--|--0----0----0--0--0----|
-----------------------|------------------------|-----------------------|
-----------------------|------------------------|-----------------------|


  E  E  Q    Q    E  E     W                   W                 
--3--3--3----3----3--3--|--0----------------|--0----------------|
--3--3--3----3----3--3--|--1----------------|--1----------------|
--0--0--0----0----0--0--|--0----------------|--0----------------|
--0--0--0----0----0--0--|--2----------------|--2----------------|
------------------------|-------------------|-------------------|
------------------------|-------------------|-------------------|


  W                   W                   E  E  E  E  H         
-------------------|-------------------|-----------------------|
--3----------------|--L----------------|-----------1--L--------|
--2----------------|--L----------------|--------2--------------|
--0----------------|--L----------------|-----0-----------------|
-------------------|-------------------|-----------------------|
-------------------|-------------------|-----------------------|


  H        H                      
--------------------|-----------||
--L-----------------|-----------||
--------------------|-----------||
--------------------|-----------||
--------------------|-----------||
--------------------|-----------||



===========================================================================
===========================================================================

Guitar 2 nylon



E||-------|-------|-------|-------|-------|-------|-------|-------|-------|
B||-------|-------|-------|-------|-------|-------|-------|-------|-------|
G||-------|-------|-------|-------|-------|-------|-------|-------|-------|
D||-------|-------|-------|-------|-------|-------|-------|-------|-------|
A||-------|-------|-------|-------|-------|-------|-------|-------|-------|
E||-------|-------|-------|-------|-------|-------|-------|-------|-------|

Interlude


  E   S  S  H         Q       Q    H        Q       E  S  S H        Q     
---------------------------|--6----6--------L----|------------------------|
-----10p-8-10---------L----|---------------------|-----8p-6-8--------L----|
---------------------------|---------------------|------------------------|
---------------------------|---------------------|------------------------|
---------------------------|---------------------|------------------------|
---------------------------|---------------------|------------------------|


  S S H        Q.        E  S S H        Q       S S H        Q.      
--5-6-8--------L------|-----------------------|----5-6--------L------|
----------------------|-----6-5-6--------L----|--8-------------------|
----------------------|-----------------------|----------------------|
----------------------|-----------------------|----------------------|
----------------------|-----------------------|----------------------|
----------------------|-----------------------|----------------------|


  E  S S H        Q       E  S S S S S E  S S  S S S S S  
-----------------------|--------------------5s-6-5-------|
-----5---5--------L----|-----5-6-8-6-5-------------8-6-5-|
-------7---------------|---------------------------------|
-----------------------|---------------------------------|
-----------------------|---------------------------------|
-----------------------|---------------------------------|


  E   S  S  H         Q       E   S  S  H         E   S  S  
---------------------------|-------------------------12-13-|
-----10p-8-10---------L----|-----11-13-15---------L--------|
--7------------------------|-------------------------------|
---------------------------|-------------------------------|
---------------------------|-------------------------------|
---------------------------|-------------------------------|


   Q.      Q     Q     E      S  S  S S  S  S  Q     S  S  E   E   
--15----------------------|---------------------------------------|
----------13--------------|----------------11-13------------------|
----------------12--------|-----12-14---14----------14-12-----14--|
----------------------14--|--15---------------------------15------|
--------------------------|---------------------------------------|
--------------------------|---------------------------------------|


   Q.      Q     E   E   E      E  S  S  S  S  S  S  S  Q     S  S  S  
----------------------------|-----------------10----10-15----13-12----|
--11--------------------11--|--11----11----11----11----------------15-|
----------10--------10------|------9----12----------------------------|
----------------12----------|-----------------------------------------|
----------------------------|-----------------------------------------|
----------------------------|-----------------------------------------|


   Q.      S  S  H           E   S  S  S  S  S  S  S  S  S  S  S  S  S  S  
----------12--------------|-----------12-13-15-13-12----------------------|
--15---------15-14--------|-----14-15----------------15-14----------------|
--------------------------|--------------------------------15-14-12-------|
--------------------------|-----------------------------------------15-14-|
--------------------------|-----------------------------------------------|
--------------------------|-----------------------------------------------|


  E   E   E   E   E   E   E   E      E   E   E   E   E   E   E   E   
-----13--12--13------13--12--13--|------13--12--13------12----------|
---------------------------------|------------------15------13--15--|
-----------------14--------------|----------------------------------|
---------------------------------|--15------------------------------|
---------------------------------|----------------------------------|
---------------------------------|----------------------------------|


   E   E   E   S  S  E   S  S  E   S  S     H         Q     Q             
----------------------------------------|------------------------|-------|
--11--13------11------------------------|--15---------L\---------|-------|
----------14-----14-12--12--------------|------------------------|-------|
---------------------------15-14--15-14-|------------------------|-------|
----------------------------------------|------------------------|-------|
----------------------------------------|------------------------|-------|


                          E   E   E   E   E   E   E   E   
-------|-------|-------|-----13--12--13------13--12--13--|
-------|-------|-------|---------------------------------|
-------|-------|-------|-----------------14--------------|
-------|-------|-------|---------------------------------|
-------|-------|-------|---------------------------------|
-------|-------|-------|---------------------------------|


                                           3  3      3  3      3  3            
   E   E   E   E   E   E   E   E      E.   S  S  E   S  S  E   S  S  E   S. S. 
------13--12--13--15--13--12--13--|--17---15-17-15--13-15-13--12-13-12--12-12-|
----------------------------------|-------------------------------------------|
----------------------------------|-------------------------------------------|
--15------------------------------|-------------------------------------------|
----------------------------------|-------------------------------------------|
----------------------------------|-------------------------------------------|


   S. H         Q.      T     H         Q     E  E   
--12----------------------|----------------------x--|
-----15---------L\--------|--11---------L----11--0--|
--------------------------|----------------------x--|
--------------------------|-------------------------|
--------------------------|-------------------------|
--------------------------|-------------------------|


   E.   E  E  Q.     E   S     E  Q    H        E     E    H          Q.      
--10s---8--8--8------------|-----------------------|-------------------------|
---------------------------|-----------------------|-------------------------|
---------------------5--10-|--10--9----L--------9--|--Ls--14~---------L------|
---------------------------|-----------------------|-------------------------|
---------------------------|-----------------------|-------------------------|
---------------------------|-----------------------|-------------------------|



===========================================================================
===========================================================================





Guitar 3



E||-------|-------|-------|-------|-------|-------|-------|
B||-------|-------|-------|-------|-------|-------|-------|
G||-------|-------|-------|-------|-------|-------|-------|
D||-------|-------|-------|-------|-------|-------|-------|
A||-------|-------|-------|-------|-------|-------|-------|
E||-------|-------|-------|-------|-------|-------|-------|


  H        Q    S S. S.    H         Q.       S S    E  H         Q     E   
------------------------|-------------------------|------------------------|
------------------3s-6--|--8b--------Lpb------8-6-|--8--8b--------L\-------|
------------------------|-------------------------|------------------------|
------------------------|-------------------------|------------------------|
------------------------|-------------------------|------------------------|
------------------------|-------------------------|------------------------|


         H        E  E.  S. S.    H         Q.       S S  
------|------------------------|-------------------------|
------|------------------3s-6--|--8b--------Lpb------8-6-|
------|------------------------|-------------------------|
------|------------------------|-------------------------|
------|------------------------|-------------------------|
------|------------------------|-------------------------|


  Q.     Q     Q.                                                             
----------------------|----|----|----|-------|-------|-------|-------|-------|
----------------------|----|----|----|-------|-------|-------|-------|-------|
--7------L\-----------|----|----|----|-------|-------|-------|-------|-------|
----------------------|----|----|----|-------|-------|-------|-------|-------|
----------------------|----|----|----|-------|-------|-------|-------|-------|
----------------------|----|----|----|-------|-------|-------|-------|-------|


-------|-------|-------|-------|-------|-------|-------|-------|-------|-------|
-------|-------|-------|-------|-------|-------|-------|-------|-------|-------|
-------|-------|-------|-------|-------|-------|-------|-------|-------|-------|
-------|-------|-------|-------|-------|-------|-------|-------|-------|-------|
-------|-------|-------|-------|-------|-------|-------|-------|-------|-------|
-------|-------|-------|-------|-------|-------|-------|-------|-------|-------|


-------|-------|-------|-------|-------|-------|-------|-------|-------|-------|
-------|-------|-------|-------|-------|-------|-------|-------|-------|-------|
-------|-------|-------|-------|-------|-------|-------|-------|-------|-------|
-------|-------|-------|-------|-------|-------|-------|-------|-------|-------|
-------|-------|-------|-------|-------|-------|-------|-------|-------|-------|
-------|-------|-------|-------|-------|-------|-------|-------|-------|-------|


-------|-------|-------|-------|-------|-------|-------|-------|----|
-------|-------|-------|-------|-------|-------|-------|-------|----|
-------|-------|-------|-------|-------|-------|-------|-------|----|
-------|-------|-------|-------|-------|-------|-------|-------|----|
-------|-------|-------|-------|-------|-------|-------|-------|----|
-------|-------|-------|-------|-------|-------|-------|-------|----|


  H        Q    S S. S.    H         Q.       S S    E  H         E.  S. S.  
------------------------|-------------------------|-------------------------|
------------------3s-6--|--8b--------Lpb------8-6-|--8--8b------------3s-6--|
------------------------|-------------------------|-------------------------|
------------------------|-------------------------|-------------------------|
------------------------|-------------------------|-------------------------|
------------------------|-------------------------|-------------------------|


  H         Q.       S S    Q.     Q     E.  S. S.    H         Q.       S S  
-------------------------|-------------------------|-------------------------|
--8b--------Lpb------8-6-|-------------------3s-6--|--8b--------Lpb------8-6-|
-------------------------|--7------L\--------------|-------------------------|
-------------------------|-------------------------|-------------------------|
-------------------------|-------------------------|-------------------------|
-------------------------|-------------------------|-------------------------|


  E.  E  E  E.  E  E   E     W                    H         H                 
--------------------------|--------------------|---------------------|-------|
--8---6-----6-------------|--------------------|---------------------|-------|
---------7------7--7p--5--|--7~----------------|--L\-----------------|-------|
--------------------------|--------------------|---------------------|-------|
--------------------------|--------------------|---------------------|-------|
--------------------------|--------------------|---------------------|-------|


-------|-------|-------|-------|-------|-------|-------|-------|-------|-------|
-------|-------|-------|-------|-------|-------|-------|-------|-------|-------|
-------|-------|-------|-------|-------|-------|-------|-------|-------|-------|
-------|-------|-------|-------|-------|-------|-------|-------|-------|-------|
-------|-------|-------|-------|-------|-------|-------|-------|-------|-------|
-------|-------|-------|-------|-------|-------|-------|-------|-------|-------|


-------|-------|-------|-------|-------|-------|-------|-------|-------|-------|
-------|-------|-------|-------|-------|-------|-------|-------|-------|-------|
-------|-------|-------|-------|-------|-------|-------|-------|-------|-------|
-------|-------|-------|-------|-------|-------|-------|-------|-------|-------|
-------|-------|-------|-------|-------|-------|-------|-------|-------|-------|
-------|-------|-------|-------|-------|-------|-------|-------|-------|-------|


                                                  H        Q    S S. S.  
-------|-------|-------|-------|-------|-------|------------------------|
-------|-------|-------|-------|-------|-------|------------------3s-6--|
-------|-------|-------|-------|-------|-------|------------------------|
-------|-------|-------|-------|-------|-------|------------------------|
-------|-------|-------|-------|-------|-------|------------------------|
-------|-------|-------|-------|-------|-------|------------------------|


  H         Q.       S S    E  H         E.  S. S.    H         Q.       S S  
-------------------------|-------------------------|-------------------------|
--8b--------Lpb------8-6-|--8--8b------------3s-6--|--8b--------Lpb------8-6-|
-------------------------|-------------------------|-------------------------|
-------------------------|-------------------------|-------------------------|
-------------------------|-------------------------|-------------------------|
-------------------------|-------------------------|-------------------------|


  Q.     Q     E.  S. S.    H         Q.       S S    E.  E  E  E.  E  E   E   
-------------------------|-------------------------|--------------------------|
-------------------3s-6--|--8b--------Lpb------8-6-|--8---6-----6-------------|
--7------L\--------------|-------------------------|---------7------7--7p--5--|
-------------------------|-------------------------|--------------------------|
-------------------------|-------------------------|--------------------------|
-------------------------|-------------------------|--------------------------|


  W                    W                   H         H                     
--------------------|-------------------|---------------------|-----|-----|
--------------------|-------------------|---------------------|-----|-----|
--7~----------------|--L----------------|--L\-----------------|-----|-----|
--------------------|-------------------|---------------------|-----|-----|
--------------------|-------------------|---------------------|-----|-----|
--------------------|-------------------|---------------------|-----|-----|


-----|-----|-----|-----|-----|-----|-----|-----|-----|-----|-----|-----|-----|
-----|-----|-----|-----|-----|-----|-----|-----|-----|-----|-----|-----|-----|
-----|-----|-----|-----|-----|-----|-----|-----|-----|-----|-----|-----|-----|
-----|-----|-----|-----|-----|-----|-----|-----|-----|-----|-----|-----|-----|
-----|-----|-----|-----|-----|-----|-----|-----|-----|-----|-----|-----|-----|
-----|-----|-----|-----|-----|-----|-----|-----|-----|-----|-----|-----|-----|


                                           PM PM PM PM PM PM PM PM  
                    H         H            E  E  E  E  E  E  E  E   
-----|-----|-----|----------------------|--------------------------|
-----|-----|-----|----------------------|--------------------------|
-----|-----|-----|----------------------|--------------------------|
-----|-----|-----|----------------------|--7--7--7--7--7--7--7--7--|
-----|-----|-----|-----------12\--------|--5--5--5--5--5--5--5--5--|
-----|-----|-----|----------------------|--------------------------|


  PM PM PM PM PM PM PM PM    PM PM PM PM PM PM PM PM  
  E  E  E  E  E  E  E  E     E  E  E  E  E  E  E  E   
--------------------------|--------------------------|
--------------------------|--------------------------|
--------------------------|--------------------------|
--8--8--8--8--8--8--8--8--|--8--8--8--8--8--8--8--8--|
--5--5--5--5--5--5--5--5--|--7--7--7--7--7--7--7--7--|
--------------------------|--------------------------|


   PM  PM  PM  PM  PM  PM  PM  PM    PM PM PM PM PM PM PM PM  
   E   E   E   E   E   E   E   E     E  E  E  E  E  E  E  E   
----------------------------------|--------------------------|
----------------------------------|--------------------------|
----------------------------------|--------------------------|
--10--10--10--10--10--10--10--10--|--------------------------|
---8---8---8---8---8---8---8---8--|--8--8--8--8--8--8--8--8--|
----------------------------------|--6--6--6--6--6--6--6--6--|


  PM PM PM PM PM PM PM PM    PM PM PM PM PM PM PM PM  
  E  E  E  E  E  E  E  E     E  E  E  E  E  E  E  E   
--------------------------|--------------------------|
--------------------------|--------------------------|
--------------------------|--------------------------|
--------------------------|--------------------------|
--8--8--8--8--8--8--8--7--|--7--7--7--7--7--7--7--7--|
--6--6--6--6--6--6--6--5--|--5--5--5--5--5--5--5--5--|


  PM PM PM PM PM PM PM PM                                    
  E  E  E  E  E  E  E  E     E   E   E   E   E   E   E   E   
--------------------------|-----17--15--17------17--15--17--|
--------------------------|-----------------18--------------|
--------------------------|---------------------------------|
--------------------------|---------------------------------|
--7--7--7--7--7--7--7--7--|---------------------------------|
--5--5--5--5--5--5--5--5--|---------------------------------|


   E   E   E   E   E   E   E   E      E   E   E   S  S  E   E   E   S  S  
--17--17--15--17------15----------|--------------------------------------|
------------------18------17--18--|--15--17--17--18-17-15----------15-13-|
----------------------------------|------------------------17--17--------|
----------------------------------|--------------------------------------|
----------------------------------|--------------------------------------|
----------------------------------|--------------------------------------|


                                               |---3---|  |--3--|    
   H         Q     S  S  S  S      H           E   E   E  Q     E    
-------------------------------|------------------------------------|
------------------------15-----|--------------15--17--18-------17b--|
--14---------L\------14----17b-|---Lpb------------------------------|
-------------------------------|------------------------------------|
-------------------------------|------------------------------------|
-------------------------------|------------------------------------|


                                                      W                  
   H.            E   E      H          Q.      E      W                  
------------------------|-------------------------|---------------------|
---Lb---------------15--|--18b--------18b---------|---------------------|
------------------------|----------------------0--|--14~----------------|
------------------------|-------------------------|---------------------|
------------------------|-------------------------|---------------------|
------------------------|-------------------------|---------------------|


  E   E   E   E   E   E   E   E      E   E   E   E   E   E   E   E   
-----17------17------17------17--|--17--17------17--18--17------17--|
---------20------18------20------|----------20--------------20------|
---------------------------------|----------------------------------|
---------------------------------|----------------------------------|
---------------------------------|----------------------------------|
---------------------------------|----------------------------------|


        3  3      3  3      3  3                                       
   E.   S  S  E   S  S  E   S  S  E   S. S.    S. H         Q.      T  
--20---18-20-18--17-18-17--15-17-15--15-17-|--15----------------------|
-------------------------------------------|-----18---------L\--------|
-------------------------------------------|--------------------------|
-------------------------------------------|--------------------------|
-------------------------------------------|--------------------------|
-------------------------------------------|--------------------------|


   E   E   E   E   E   E   E   E       E   E   Q     Q     Q     
-----------------------------------|----------------------------|
--18--18--18--18--18--18--18--18s--|--22--22--22----22----22----|
-------------------------------x---|----------------------------|
-----------------------------------|----------------------------|
-----------------------------------|----------------------------|
-----------------------------------|----------------------------|


   E   E   E   E   H            W                  
----------------------------|--17~----------------|
--22--20--20--20--20--------|---------------------|
----------------------------|---------------------|
----------------------------|---------------------|
----------------------------|---------------------|
----------------------------|---------------------|


   E.   E  S  E  S  S  E   Q        S. E   E   S  S. S  S  S  S  S  S  S  S  
--17---17----18----17-15--17----|---L-15--17--18-17-15-17-15-13-15-13-12----|
--------------------------------|----------------------------------------15-|
--------------------------------|-------------------------------------------|
--------------------------------|-------------------------------------------|
--------------------------------|-------------------------------------------|
--------------------------------|-------------------------------------------|


   S  S  S  S  S  S  S   S  S  S  S  S S  S S S    Q    H.                    
--12-13-----------------------------------------|--------------------|-------|
--------15-13-11-13-11s-10-11-10s-8-10-8--------|--------------------|-------|
-----------------------------------------10-9-7-|--L-----------------|-------|
------------------------------------------------|--------------------|-------|
------------------------------------------------|--------------------|-------|
------------------------------------------------|--------------------|-------|


-------|-------|-------|-------|-------|-------|-------|-------|-------|----|
-------|-------|-------|-------|-------|-------|-------|-------|-------|----|
-------|-------|-------|-------|-------|-------|-------|-------|-------|----|
-------|-------|-------|-------|-------|-------|-------|-------|-------|----|
-------|-------|-------|-------|-------|-------|-------|-------|-------|----|
-------|-------|-------|-------|-------|-------|-------|-------|-------|----|


  H        Q    S S. S.    H         Q.       S S    E  H         E.  S. S.  
------------------------|-------------------------|-------------------------|
------------------3s-6--|--8b--------Lpb------8-6-|--8--8b------------3s-6--|
------------------------|-------------------------|-------------------------|
------------------------|-------------------------|-------------------------|
------------------------|-------------------------|-------------------------|
------------------------|-------------------------|-------------------------|


  H         Q.       S S    Q.     Q     E.  S. S.    H         Q.       S S  
-------------------------|-------------------------|-------------------------|
--8b--------Lpb------8-6-|-------------------3s-6--|--8b--------Lpb------8-6-|
-------------------------|--7------L\--------------|-------------------------|
-------------------------|-------------------------|-------------------------|
-------------------------|-------------------------|-------------------------|
-------------------------|-------------------------|-------------------------|


  E.  E  E  E.  E  E   E     W                    W                  
--------------------------|--------------------|--------------------|
--8---6-----6-------------|--------------------|--------------------|
---------7------7--7p--5--|--7~----------------|--7~----------------|
--------------------------|--------------------|--------------------|
--------------------------|--------------------|--------------------|
--------------------------|--------------------|--------------------|


  W                    W                   W                 
--------------------|-------------------|-------------------|
--------------------|-------------------|-------------------|
--7~----------------|--7----------------|--L----------------|
--------------------|-------------------|-------------------|
--------------------|-------------------|-------------------|
--------------------|-------------------|-------------------|


    SH                                                        
    W                   W                   W                 
---------------------|-------------------|-------------------|
---------------------|-------------------|-------------------|
--<>7----------------|--L----------------|--L----------------|
---------------------|-------------------|-------------------|
---------------------|-------------------|-------------------|
---------------------|-------------------|-------------------|


  W                  
-------------------||
-------------------||
--L----------------||
-------------------||
-------------------||
-------------------||



===========================================================================
===========================================================================



Guitar 4


Rhythm under harmony and solo

                                          W                 
E||------|-------|-------|-------|-------|-------------------|
B||------|-------|-------|-------|-------|-------------------|
G||------|-------|-------|-------|-------|--7----------------|
D||------|-------|-------|-------|-------|--7----------------|
A||------|-------|-------|-------|-------|--5----------------|
E||------|-------|-------|-------|-------|-------------------|


   W                   W                   W                 
--------------------|-------------------|-------------------|
--------------------|-------------------|-------------------|
--10----------------|--5----------------|--7----------------|
--10----------------|--5----------------|--7----------------|
---8----------------|--3----------------|--5----------------|
--------------------|-------------------|-------------------|


   W                   W                   W                 
--------------------|-------------------|-------------------|
--------------------|-------------------|-------------------|
--------------------|-------------------|-------------------|
--10----------------|--3----------------|--5----------------|
---7----------------|--3----------------|--5----------------|
---0----------------|--1----------------|--3----------------|


  W                   W                    W                 
-------------------|-------------------|--------------------|
-------------------|-------------------|--------------------|
-------------------|--7----------------|--------------------|
--7----------------|--7----------------|--10----------------|
--7----------------|--5----------------|---7----------------|
--5----------------|-------------------|---0----------------|


   W                   W                   W                 
--------------------|-------------------|-------------------|
--------------------|-------------------|-------------------|
--10----------------|--7----------------|--3----------------|
--10----------------|--7----------------|--3----------------|
---8----------------|--5----------------|--1----------------|
--------------------|-------------------|-------------------|


  W                   W                   W                   W                 
-------------------|-------------------|-------------------|-------------------|
-------------------|-------------------|-------------------|-------------------|
-------------------|-------------------|-------------------|-------------------|
--3----------------|--5----------------|--7----------------|--7----------------|
--3----------------|--5----------------|--7----------------|--7----------------|
--1----------------|--3----------------|--5----------------|--5----------------|


  W                   W                   W                                 
-------------------|-------------------|-------------------|-------|-------|
-------------------|-------------------|-------------------|-------|-------|
-------------------|-------------------|-------------------|-------|-------|
--7----------------|--7----------------|--7----------------|-------|-------|
--7----------------|--7----------------|--7----------------|-------|-------|
--5----------------|--5----------------|--5----------------|-------|-------|






Duration Legend
---------------
W - whole
H - half
Q - quarter
E - 8th
S - 16th
T - 32nd
X - 64th
. - note dotted
|-n-|  - n-tuplets


Tablature Legend
----------------
L - tied note
x - dead note
g - grace note
(n) - ghost note
> - accentuded note
NH - natural harmonic
AH - artificial harmonic
TH - tapped harmonic
SH - semi harmonic
PH - pitch harmonic
h - hammer on
p - pull off
b - bend
br - bendRelease
pb - preBend
pbr - preBendRelease
brb - bendReleaseBend
\n/ - tremolo bar dip
\n - tremolo bar dive
-/n - tremolo bar Release up
/n\ - tremolo bar inverted dip
/n - tremolo bar return
-\n - tremolo bar Release down
S - shift slide
s - legato slide
/ -  slide into from below or out of upwards
\ -  slide into from above or out of downwards
~ - vibrato
W - wide vibrato
tr - trill
TP - tremolo picking
T - tapping
S - slap
P - pop
< - fade in
^ - brush up
v - brush down
comments
We did not receive enough feedback on this tab! Please rate:
print report bad tab
1 2 3 4 5
I want to post or [tab]
guest
You may want to rate the tab now too:
select rating
Please do not post tabs as comments. Select "correction" instead!