Oops, an error
Loading. Please wait.

Green Manalishi Tab

ver2
ver2

Whole song

More versions @911Tabs.com
15,893 views 42 this week
no commentswrite comment
1 2 3 4 5
accurate
x 5
Autoscroll
+/-
esc
set tempo
stop
Contributor
WARNING: You are trying to view
                                    content from Ultimate-Guitar.com
                                    in an unauthorized application,
                                    which is prohibited.

                                    Please use an official Ultimate
                                    Guitar Tabs application for iPhone,
                                    iPad or Android to access legitimate
                                    chords, guitar, bass, and drum tabs
                                    from Ultimate-Guitar.com database.

                                    Type "ultimate guitar tabs" in Apple
                                    App Store's or Android Market's
                                    search to find the application.
Band - Judas Priest
Song - The Green Manalishi

Tuning: standard

    Em                                         C                         D
e|---------------------|--------------------|-----------------|-----------------|
B|---------------------|--------------------|-----------------|-----------------|
G|---------------------|--------------------|-----------------|-----------------|
D|--9-7-9~---12-12-12--|--7--7-7----9--9-7--|--7-5-5~-----5~--|--4--5~---7-7-9--|
A|--9-7-9~---12-12-12--|--7--7-7----9--9-7--|--7-5-5~-----5~--|--4--5~---7-7-9--|
E|--7-5-7~---10-10-10--|--5--5-5----7--7-5--|--5-3-3~-----3~--|--2--3~---5-5-7--|

         G A   G      A  G   Em              G  A    G      A   G   Em    G
e|-----------------|------------|------------------------|-------------|--------|
B|-----------------|------------|------------------------|-------------|--------|
G|-----------------|------------|------------------------|-------------|--------|
D|--2----5-7---5~--|--7--5-5-2--|--2------2--5--7----5~--|--7---5-5-2--|----5---|
A|--2----5-7---5~--|--7--5-5-2--|--2------2--5--7----5~--|--7---5-5-2--|----5---|
E|--0----3-5---3~--|--5--3-3-0--|--0------0--3--5----3~--|--5---3-3-0--|----3---|

    A     Em NC                Em      G/D     Em  D     Em      G/D         D
e|-----|--------------------|---------------|---------|----------------|--------|
B|-----|--------------------|---------------|---------|----------------|--------|
G|-----|--------------------|--9-7-9~---7~--|--9---7--|--9-7-9~----7~--|--7--7--|
D|--7--|--2--5-4-----2------|--9-7-9~---5~--|--9---7--|--9-7-9~----5~--|--5--7--|
A|--7--|--2------2-5--------|--7-5-7~---5~--|--7---5--|--7-5-7~----5~--|--5--5--|
E|--5--|--0------------3-2--|--0------------|---------|----------------|--------|

                        A/E    Em                                      C
e|-----------|--------|-----|--------------------|----------------|-------------|
B|-----------|--------|-----|--------------------|----------------|-------------|
G|--7--7--7--|--7--7--|--9--|--9-7-9~--12-12-12--|--7-7-7--9-9-7--|--7-5-5~--5~-|
D|--7--7--7--|--7--7--|--7--|--9-7-9~--12-12-12--|--7-7-7--9-9-7--|--7-5-5~--5~-|
A|--5--5--5--|--5--5--|--7--|--7-5-7~--10-10-10--|--5-5-5--7-7-5--|--5-3-3~--3~-|
E|-----------|--------|-----|--------------------|----------------|-------------|

            D
e|-----------------|--------------------|
B|-----------------|--------------------|
G|--4-5~----7-7-9--|--9--4--5~---7-7-9--|
D|--4-5~----7-7-9--|--9--4--5~---7-7-9--|
A|--2-3~----5-5-7--|--7--2--3~---5-5-7--|
E|-----------------|--------------------|

Solo:
e|---------------------|------------------|-----------------|------12-12h---------12--------|
B|---------------------|------------------|-----------------|--/12-------15----------15-15--|
G|--/2--/2~--/2--2--2~-|--\2--2--2~~~--2--|--2p0--0h2-------|---------------14-14-----------|
D|---------------------|------------------|------------2~~~-|-------------------------------|
A|---------------------|------------------|-----------------|-------------------------------|
E|---------------------|------------------|-----------------|-------------------------------|

e|---------------|--12-14-15-/15-----\15--|--12h15-------12h----------------------|
B|--/15---/15~~~-|------------------------|--------/15------15p12h-----/12h15p12--|
G|---------------|------------------------|-----------------------14-14-----------|
D|---------------|------------------------|---------------------------------------|
A|---------------|------------------------|---------------------------------------|
E|---------------|------------------------|---------------------------------------|

e|------------------------------------------|---------|---------------------------|
B|-----12-----------------------------------|---------|---------------------------|
G|--14----/14------12h---------------13~~~--|---------|---------------------------|
D|--------------------14p12h---12h14--------|---------|-----------------10-12p10--|
A|--------------------------14--------------|---------|--------10-12/14-----------|
E|------------------------------------------|--10/12--|--10/12--------------------|

e|----------------------|---------------------------------|--10/12-12-12--|
B|----------------------|--/15----------------------------|---------------|
G|--12-11----------/14--|-------14--12--/14-\14-12~~~-----|---------------|
D|--------14~~~---------|--------------------------14~~~--|---------------|
A|----------------------|---------------------------------|---------------|
E|----------------------|---------------------------------|---------------|

e|--10/12-15p12-15p12--------------------------------|--------------|---------------------------|
B|--------------------15p12-15p12--------------------|--------------|---------------------------|
G|--------------------------------14p12-14p12--------|--12--12------|--12-12--------------------|
D|--------------------------------------------14~~~--|----------14--|--------14-12-14-----------|
A|---------------------------------------------------|--------------|-----------------12-14-----|
E|---------------------------------------------------|--------------|-----------------------15--|

e|---------|
B|---------|
G|---------|
D|---------|
A|---------|
E|--12~~~--|

                                       (Guitar 1)
    Em                                         C                         D
e|---------------------|--------------------|-----------------|-----------------|
B|---------------------|--------------------|-----------------|-----------------|
G|---------------------|--------------------|-----------------|-----------------|
D|--9-7-9~---12-12-12--|--7--7-7----9--9-7--|--7-5-5~-----5~--|--4--5~---7-7-9--|
A|--9-7-9~---12-12-12--|--7--7-7----9--9-7--|--7-5-5~-----5~--|--4--5~---7-7-9--|
E|--7-5-7~---10-10-10--|--5--5-5----7--7-5--|--5-3-3~-----3~--|--2--3~---5-5-7--|
 |                                                                              |
 |                                     (Guitar 2)                               |
e|---------------------|--------------------|-----------------|-----------------|
B|---------------------|--------------------|-----------------|-----------------|
G|---------------------|--------------------|-----------------|-----------------|
D|---------------4--5--|--/7~----------5-4--|-----------------|-----------------|
A|--/7~----------------|--------------------|--/7~~~----------|-----------------|
E|---------------------|--------------------|-----------------|-----------------|

                                       (Guitar 1)
    Em                                         C                         D
e|---------------------|--------------------|-----------------|-----------------|
B|---------------------|--------------------|-----------------|-----------------|
G|---------------------|--------------------|-----------------|-----------------|
D|--9-7-9~---12-12-12--|--7--7-7----9--9-7--|--7-5-5~-----5~--|--4--5~---7-7-9--|
A|--9-7-9~---12-12-12--|--7--7-7----9--9-7--|--7-5-5~-----5~--|--4--5~---7-7-9--|
E|--7-5-7~---10-10-10--|--5--5-5----7--7-5--|--5-3-3~-----3~--|--2--3~---5-5-7--|
 |                                                                              |
 |                                     (Guitar 2)                               |
e|---------------------|--------------------|-----------------|-----------------|
B|---------------------|-----------------8--|--5~~~-----------|-----------------|
G|---------------------|---------------4----|-----------------|-----------------|
D|---------------4--5--|--/7~---------------|-----------------|-----------------|
A|--/7~----------------|--------------------|-----------------|-----------------|
E|---------------------|--------------------|-----------------|-----------------|

    Em NC
e|----------------------|-------------------|-----|
B|----------------------|-------------------|-----|
G|----------------------|-------------------|-----|
D|------5-4-----2-------|--------------5-4--|--2--|
A|----------2-5---2-5---|--3-2-------2------|-----|
E|--0-------------------|------0-2-3--------|-----|
comments
print report bad tab
I want to post or [tab]
guest
You may want to rate the tab now too:
select rating
Please do not post tabs as comments. Select "correction" instead!