Oops, an error
Loading. Please wait.

Im A Rocker Tab

ver1
ver1

Whole song

Interactive

More versions @911Tabs.com
2,363 views 6 this week
no commentswrite comment
1 2 3 4 5
excellent!
x 1
Autoscroll
+/-
esc
set tempo
stop
Contributor
Difficulty
intermediate
Hey! There's an official Ultimate Guitar app which is ideal
for learning songs when you're away from computer. Get the app
WARNING: You are trying to view
                                    content from Ultimate-Guitar.com
                                    in an unauthorized application,
                                    which is prohibited.

                                    Please use an official Ultimate
                                    Guitar Tabs application for iPhone,
                                    iPad or Android to access legitimate
                                    chords, guitar, bass, and drum tabs
                                    from Ultimate-Guitar.com database.

                                    Type "ultimate guitar tabs" in Apple
                                    App Store's or Android Market's
                                    search to find the application.
                 judas priest -   I'm a rocker

ram it down (album)
tuning  E : (E B S R A E )

intro 1


E||-----------------------|-------------------------|-----------------------|
B||-----------------------|---------------8--L------|--3--------------------|
G||-----------------------|--9------9--L-----7------|--5------7--L----------|
D||-----------------------|--9------9--L------------|--5------7--L----------|
A||-----------------------|--7------7--L--------x-x-|--3------5--L----------|
E||-------------------x-x-|-------------------------|-------------------x-x-|

------------------------|-------------------------|
---------7--8---L-------|--3----------------------|
--9------7--------------|--5----7-----------------|
--9------7--------------|--5----7-----------------|
--7------5--------------|--3----5----2-3-2---2----|
--------------------x-x-|------------------5------|

verse (1 and 2)

|-------------------|---------------------|-----------------------|
|-------------------|---------------------|-----------------------|
|-------------------|---------------------|-----------------------|
|--9----------------|-----------9---------|--12--------10---------|
|--7----------------|--9--------7----9----|--10---------7---------|
|-------------------|--7------------------|------------------8----|

-----------------------------|
-----------------------------|
-----------------------------|
--7------x-x-5--x-x-7--x-x---|
--5------x-x-3--x-x-5--x-x---|
-----------------------------|


-------------------|---------------------|-----------------------|
-------------------|---------------------|-----------------------|
-------------------|---------------------|-----------------------|
--9----------------|-----------9---------|--12--------10---------|
--7----------------|--9--------7----9----|--10---------7---------|
-------------------|--7------------------|------------------8----|


---------------------|
---------------------|
---------------------|
--7-------------2----|
--5--------5----0----|
-----------3---------|

chorus 1 y 2


|----------------------------------|
|----------------------------------|
|----------------------------------|
|----------------------------------|
|--2-2-2-2-2-2-2-2-2-2-2-2-2-2-3-3-|
|--0-0-0-0-0-0-0-0-0-0-0-0-0-0-----|


  S S S S S S S S H           H        H           Q    Q    S S S S S S S S
---------------------------|-------------------|----------------------------|
---------------------------|-------------------|----------------------------|
---------------------------|-------------------|----------------------------|
------------------7--------|--5--------7-------|----------------------------|
--3-3-3-3-3-3-3-3-5--------|--3--------5-------|--5----7----2-3-2---2-------|
---------------------------|-------------------|--3----5----------5---5-3-2-|


  S S S S S S S S S S S S S S S S    S S S S S S S S H
----------------------------------|---------------------------|
----------------------------------|---------------------------|
----------------------------------|---------------------------|
----------------------------------|------------------7--------|
--2-2-2-2-2-2-2-2-2-2-2-2-2-2-3-3-|--3-3-3-3-3-3-3-3-5--------|
--0-0-0-0-0-0-0-0-0-0-0-0-0-0-----|---------------------------|


  H        H           Q    Q    S S S S Q       Q.     S S E  S S E  S S
--------------------|-------------------------|---------------------------|
--------------------|-------------------------|---------------------------|
--------------------|-------------------------|---------------------------|
--5--------7--------|--9----4-----------------|--7------x-x-5--x-x-7--x-x-|
--3--------5--------|--7----2----2-3-2---2----|--5------x-x-3--x-x-5--x-x-|
--------------------|------------------5------|---------------------------|

SOLO :  glenn tipton

--------------------|--------------------------|--8---7---------------------|
--------------7b----|--17~------7--L--8--L--7--|---------10--L--8--L--10-8S-|
--------------------|--------------------------|----------------------------|
--------------------|--------------------------|----------------------------|
--------------------|--------------------------|----------------------------|
--------------------|--------------------------|----------------------------|


                                           \2/ \2/ \2/  \2/ \2/ \2/
                                           |---3---|    |---3---|
   Q.      E  E  E  E  S S    Q      Q     E   E   E    E   E   E
---------------------------|--8~----10S----------------------------|
--17~------7--L--8--L--7-8-|---------------------------12--12--12--|
---------------------------|---------------------------------------|
---------------------------|---------------9---9---9---------------|
---------------------------|---------------------------------------|
---------------------------|---------------------------------------|


                           |--3--|
   Q     S  E.     Q.      S  S  S
--10----11-10---<>11---------------|
-----------------------------------|
-----------------------------------|
--------------------------10-12-14-|
-----------------------------------|
-----------------------------------|


                                                   T
   |-----10----|  |-----10----|
   T  T  T  T  T  T  T  T  T  T  T T   T  T  T  T  T  T  T  T  T T  T  T  T  T
-----------------------------------------------------------------------------|
-----------------------------------------------------------------------------|
-10-12-14-12-10-14-12-10-14-12-10-9h-10-14-15-14-10-14-10-14-10-9-10p-9------|
--------------------------------------------------------------------- 10-14--|S
-----------------------------------------------------------------------------|
-----------------------------------------------------------------------------|


     Q     Q     S  S  S  S  S  S  E
----------------17-18-17----17----------|
-------------------------18----18-17br--|
----------------------------------------|
--<>19b----L----------------------------|
----------------------------------------|
----------------------------------------|


   S     T  T  T   T  S   T   T  T  T  T  T  T  T  T   T  T  T   T  T   T  T  T
--------------------------------------------------------18-20p-18-20p-18------|
--------------------18h-22p-18----------18----18-20h-22-----------------22-20-|
-17pbr-17----17h-20------------19----19----19---------------------------------|
----------19----------------------19------------------------------------------|
------------------------------------------------------------------------------|
------------------------------------------------------------------------------|


                                     \2/
   T  T  T  T    E   E   S  S  S  S  S   S  S  S  S   S
--------------------------------------------------------|
------------------------------10-10-10h-11-10-10-----10-|
--17-22-17-19h~-19~--L-----10--------------------12b----|
------------------------12------------------------------|
--------------------------------------------------------|
--------------------------------------------------------|


   S S S  S  S S  Q.        E.   T  T
--------------------------------------|
-------8-----8-8-10br~------8b---8p-6-|
-----9---10b--------------------------|
--10----------------------------------|
--------------------------------------|
--------------------------------------|


          |-3-|
  Q    E  S S S
-----------------------------------------------|
----------5-6-8-10-8-6-------------------------|
--7----L---------------9-7-6-9-7-6-------------|
-----------------------------------8-7-5-3-5-3-|
-----------------------------------------------|
-----------------------------------------------|


  |--6-|   |-6-|   |--6-|  |--6--| |---6--|   |--6--|   |---6--|  |---6--|
  S  S S   S S S   S S  S  S S   S S   S  S   S  S  S   S  S   S  S   S  S
---------------------------------------------------------------------------|
------------------------------------------------------------------------14-|
-----------------------------9h-12-------------------------------12h-15----|
---------------------8-11-12------------------------------11h-14-----------|
-------7h-10---7h-10---------------------10h-13----10h-13------------------|
--5h-9-------9---------------------9h-12--------12-------------------------|


   |---6--|   |--6--|   |--6--|  |--6--|   |--6--|  |---6--|  |------5-----|  |-
   S   S  S   S  S  S   S  S  S  S  S  S   S  S  S  S   S  S  T  T   T  T  T  T
------------------------------------------------------------------------------|
---------------------------------------------------------16----17h-20-17--17--|
-------------------------------15-----------18----15h-18----18----------18----|
-------------------------14-17----17-17S-19----19-----------------------------|
---------13h-16----13h-16-----------------------------------------------------|
-12h-15--------15-------------------------------------------------------------|


   T  T E  H.           S    H.           Q
--21-24-L--L------------L-|
--------------------------|
--------------------------|
--------------------------|
--------------------------|
--------------------------|

 end of song
E||-----------------------|-------------------------|-----------------------|
B||-----------------------|---------------8--L------|--3--------------------|
G||-----------------------|--9------9--L-----7------|--5------7--L----------|
D||-----------------------|--9------9--L------------|--5------7--L----------|
A||-----------------------|--7------7--L--------x-x-|--3------5--L----------|
E||-------------------x-x-|-------------------------|-------------------x-x-|

------------------------|-------------------------|
---------7--8---L-------|--3----------------------|
--9------7--------------|--5----7-----------------|
--9------7--------------|--5----7-----------------|
--7------5--------------|--3----5----2-3-2---2----|
--------------------x-x-|------------------5------|


metalgod@hotmail.com


Duration Legend
---------------
W - whole
H - half
Q - quarter
E - 8th
S - 16th
T - 32nd
X - 64th
. - note dotted
|-n-|  - n-tuplets
comments
We did not receive enough feedback on this tab! Please rate:
print report bad tab
1 2 3 4 5
I want to post or [tab]
guest
You may want to rate the tab now too:
select rating
Please do not post tabs as comments. Select "correction" instead!