Oops, an error
Loading. Please wait.

Killing Machine Tab

ver1
ver1

Album

Whole song

Interactive

More versions @911Tabs.com
2,917 views 3 this week
1 commentread comment
1 2 3 4 5
accurate
x 2
Autoscroll
+/-
esc
set tempo
stop
Contributor
Difficulty
intermediate
NEW! There's an official Ultimate Guitar app which is ideal
for learning songs when you're away from computer. Get the app
WARNING: You are trying to view
                                    content from Ultimate-Guitar.com
                                    in an unauthorized application,
                                    which is prohibited.

                                    Please use an official Ultimate
                                    Guitar Tabs application for iPhone,
                                    iPad or Android to access legitimate
                                    chords, guitar, bass, and drum tabs
                                    from Ultimate-Guitar.com database.

                                    Type "ultimate guitar tabs" in Apple
                                    App Store's or Android Market's
                                    search to find the application.
Judas priest – killing machine album
songs:

1.Delivering the Goods
2.Rock forever
3.Evening star
4.Hell bent for leather
5.Take on the world
6.Burnin’ up
7.Killing machine
8.Running wild 
9.Before the dawn
10.Evil fantasies
Bonus tracks
*The green manalishi(With The Two-Pronged Crown)


TABLATURE LEGEND
----------------
 h   - hammer-on
 p   - pull-off
 b   - bend
 pb  - pre-bend
 r   - bend release (if no number after the r, then release immediately)
 /\  - slide into or out of (from/to "nowhere")
 s   - legato slide
 S   - shift slide
  - natural harmonic
[n]  - artificial harmonic
n(n) - tapped harmonic
 ~   - vibrato
 tr  - trill
 T   - tap
 TP  - trem. picking
 PM  - palm muting
\n/  - tremolo bar dip; n = amount to dip
 \n  - tremolo bar down
 n/  - tremolo bar up
/n\  - tremolo bar inverted dip
 =   - hold bend; also acts as connecting device for hammers/pulls
 <>  - volume swell (louder/softer)
 x   - on rhythm slash represents muted slash
 o   - on rhythm slash represents single note slash
 |  - bar
||  - double bar
||o - repeat start
o|| - repeat end
*|  - double bar (ending)
 :  - bar (freetime)
 $  - Segno

1. Delivering the Goods

Tunning E A D G B E


                                               ~~~~~~~~~~~~~~~~~~~~
E-------------------------------------------------------------------|
B-14b-flick pick up switch back & forth-----------------------------|
G-14b----with volume on front pick up--r14p12-----------------------|
D------------turned down----------------------14----------(14)------|
A-------------------------------------------------------------------|
E-------------------------------------------------------------------|

E-------------------------------------------------------------------|
B-14b-flick pick up switch back & forth----------12-----------------|
G-14b----with volume on front pick up--r14p12----12-----------------|
D------------turned down----------------------14----14p12-14\9------|
A-------------------------------------------------------------------|
E-------------------------------------------------------------------|


E---------------------------------------------------|
B-7----------5--------------------------------------|
G-7----------5--------------------------------------|
D---9p7-9p7----7p5----------------------------------|
A------------------7-2--fades in to main riff-------|
E--------------------0------------------------------|

 Main Riff / Verse Riff

E----------------------------------------|
B----------------------------------------|
G----------------------------------------|
D---5-----------5-7-(7)---5-------5-7-5--|
A---5-7p5-7-(7)-5-7-(7)---5-7p5-7-5-7-5--|
E-0---------------------0---------3-5-3--|Rpt 3 X

E-----------------------------------------|
B-----------------------------------------|
G-----------------------------------------|
D---5-----------5-7-(7)---5-------4-5-6-6-|
A---5-7p5-7-(7)-5-7-(7)---5-7p5-7-4-5-6-6-|
E-0---------------------0---------2-3-4-4-|


E----------------------------------------|
B----------------------------------------|
G---5-----------5-7-(7)---5-------5-7-5--|
D---5-7p5-7-(7)-5-7-(7)---5-7p5-7-5-7-5--|
A-0---------------------0---------3-5-3--|
E----------------------------------------|

E----------------------------------------|
B----------------------------------------|
G----------------------------------------|
D---5-----------5-7-(7)---5-------5-7-5\-|
A---5-7p5-7-(7)-5-7-(7)---5-7p5-7-5-7-5\-|
E-0---------------------0---------3-5-3\-|

 Bridge

E-------------------------------------|
B-------------------------------------|
G----4--2--4p2------------2-----2-2---|
D--------------4-p0-2---------------2-|
A-2-----------------0-3p0---3p0-----0-|
E-------------------------------------|

 Chorus
      PM               [-PM]
E-----------------------------|
B-12\-------------------------|
G-12\-------------------------|
D-12\----9\7-7-7/9-9-9--------|
A-10\----7\5-5-5/7-7-7--------|
E----0-0---------------0-0-0--| Rpt 3 X

      PM               
E------------------------------------------|
B-12\--------------------------------------|
G-12\--------------------------------------|
D-12\----9\7-7-7-7\4-4-4--------(4)--------|
A-10\----7\5-5-5-5\2-2-2--------(2)--------|
E----0-0-----------------------------------|

 Rpt Verse
 Rpt Bridge and Chorus

 Backing for solo

   [----------PM----------]
E------------------------------|
B------------------------------|
G------------------------------|
D-6-------------------------9\-|
A-4-4-4-4-4-4-4-4-4-4-4-4-4-7\-|
E------------------------------| Rpt 4 X

   [----------PM----------]
E-------------------------------|
B-------------------------------|
G-------------------------------|
D-9-------------------------12\-|
A-7-7-7-7-7-7-7-7-7-7-7-7-7-10\-|
E-------------------------------| Rpt 4 X

   
E----|
B----|
G----|
D-11-|
A-9--|
E----|

 After lead fill

  Guitar 1
   [PM] PM    PM    PM
E[-----------------------------------------------------|
B[----------------------------------------------8------|
G[-----5---5----------5-7brp5-7p5-----5---5-----7--7---|
D[-----5---5-7---7----5-7brp5-7p5-----5---5-7------7---|
A[-0-0---0-----0-0--0-------------0-0---0-----0--------|
E[-----------------------------------------------------|
 [Guitar 2
E[-----------------------------------------------------|
B[-----------------------------------------------------|
G[-2---------------------(2)---------------------------|
D[-2---------------------(2)---------------------------|
A[-0---------------------(0)---------------------------|
E[-----------------------------------------------------|

  Guitar 1
   [PM] PM    PM    PM
E[-----------------------------------------------------|
B[----------------------------------------------8------|
G[-----5---5----------5-7brp5-7p5-----5---5-----7--7---|
D[-----5---5-7---7----5-7brp5-7p5-----5---5-7------7---|
A[-0-0---0-----0-0--0-------------0-0---0-----0--------|
E[-----------------------------------------------------|
 [Guitar 2
E[----------------------------------------------3------|
B[----------------------------------------------3--3---|
G[-2---------------------(2)--------------------0--2---|
D[-2---------------------(2)--------------------0--0---|
A[-0---------------------(0)---------------------------|
E[----------------------------------------------3------| Rpt

  Guitar 1
   [PM] PM    PM    PM
E[-----------------------------------------------------|
B[----------------------------------------------8------|
G[-----5---5----------5-7brp5-7p5-----5---5-----7--7---|
D[-----5---5-7---7----5-7brp5-7p5-----5---5-7------7---|
A[-0-0---0-----0-0--0-------------0-0---0-----0--------|
E[-----------------------------------------------------|
 [Guitar 2
 [ [PM] PM    PM    PM
E[----------------------------------------------3------|
B[----------------------------------------------3--3---|
G[-----5---5----------5-7brp5-7p5-----5---5-----0--2---|
D[-----5-7-5-7---7----5-7brp5-7p5-----5-7---7---0--0---|
A[-0-0---------0-0--0-------------0-0---------0--------|
E[----------------------------------------------3------| Rpt 3 X 

  Guitar 1
   [PM] PM    PM    PM
E[------------------------------------------------------------------|
B[------------------------------------------------6-6\5-----8-8\7---|
G[-----5---5----------5-7brp5-7p5-----5---5-------5-5-5-----7-7-7---|
D[-----5---5-7---7----5-7brp5-7p5-----5---5-7-----------------------|
A[-0-0---0-----0-0--0-------------0-0---0-----0---------------------|
E[------------------------------------------------------------------|
 [Guitar 2
 [ [PM] PM    PM    PM
E[------------------------------------------------------------------|
B[--------------------------------------------------------3---(3)---|
G[-----5---5----------5-7brp5-7p5-----5---5---------------2---(2)---|
D[-----5-7-5-7---7----5-7brp5-7p5-----5-7---7---5---(5)---0---(0)---|
A[-0-0---------0-0--0-------------0-0---------0-3---(3)-------------|
E[------------------------------------------------------------------|

 Rpt Verse, Bridge and Chorus

 Last time on chorus
      PM            PM   PM PM  PM  PM               
E-------------------------------------------------------------------|
B-12\---------------------------------------------------------------|
G-12\---------------------------------------------------------------|
D-12\----9\7-7-7-7\4---4---4---4---4---4-4------------(4)-----------|
A-10\----7\5-5-5-5\2-0-2-0-2-0-2-0-2-0-2-2------------(2)-----------|
E----0-0------------------------------------------------------------|

 Drum solo

      
E------|
B-12\--|
G-12\--|
D-12\--|
A-10\--|
E------|

2 rock forever

Intro / main riff

 Guitar 1

 [-PM]      [PM]      [PM]     [PM]h
E------------------------------------------|
B------------------------------------------|
G------------------------------------------|
D-------7--7-----7--5-----5--4----------2--|
A-0--0--------0--------0--------0--3p0--0--|
E------------------------------------------|

Guitar 1
 [-PM]      [PM]      [PM]h  h  h  h  h  h     
E----------------------------------------------|
B----------------------------------------------|
G-------------------------------------------5--|
D-------7--7-----7--5-----------------------5--|
A-0--0--------0--------0--5--6--7--5--6--7-----|
E----------------------------------------------|

Rpt main riff once,  Guitar 2 enters 2nd time with drum crashes

 Guitar 2
E----------------------------------------------|
B----------------------------------------------|
G-2------------(2)-----------------------------|
D-2------------(2)-----------------------------|
A-0------------(0)-----------------------------|
E----------------------------------------------|Rpt 2 X

 Guitar 2 pans from right to left
  [-----------------PM--------------------]
E----------------------------------------------|
B----------------------------------------------|
G----------------------------------------------|
D-5-7-7-7-7-5-7-7-7-5-7-7-7-5-7-7-7-5-7-7-7----|
A-0-0-0-0-0-0-0-0-0-0-0-0-0-0-0-0-0-0-0-0-0----|
E----------------------------------------------|Rpt 2 X


 Verse

E-------------------------------|
B-------------------------------|
G-5-(5)-5--5-/7--2-(2)-2--2-/7--|
D-3-(3)-3--3-/5--0-(0)-0--0-/5--|
A-------------------------------|
E-------------------------------| Rpt 4 X

 Chorus
 Guitar 1
E[------------------------------|
B[------------------------------|
G[------------------------------|
D[----3----2--------------------|
A[-3--1----0----3----2----2--5--|
E[--------------1----0----0--3--|
 [
 [Guitar 2
E[------------------------------|
B[------------------------------|
G[------------------------------|
D[-10-8----7--------------------|
A[--------------8----7\---2--5--|
E[------------------------0--3--|

Rpt main riff 2 X
Rpt verse
Rpt chorus
Rpt main riff 2 X

 Break before guita solo

 Guitar 1
        [---PM----]          [---PM----]  
E[-------------------------------------------------|
B[-------------------------------------------------|
G[-------------------5--5--3--------------3--3--2--|
D[-5-----------------5--5--3--------------3--3--3--|
A[-3-----0-3-4-5-3------------0-3-4-5-3------------|
E[-------------------------------------------------|
 [Guitar 2
E[-------------------------------------------------|
B[-------------------------------------------------|
G[-------------------5--5--3--------------3--3--2--|
D[-5------(5)--------5--5--3--------------3--3--3--|
A[-3------(3)--------------------------------------|
E[-------------------------------------------------|
  Rpt 2 X

 Guitar 1
        [---PM----]          [---PM----]
E[-------------------------------------------------|
B[-------------------------------------------------|
G[-------------------7--7--5--------------5--5--4--|
D[-7-----------------7--7--5--------------5--5--5--|
A[-5-----0-5-6-7-5------------0-5-6-7-5------------|
E[-------------------------------------------------|
 [Guitar 2
E[-------------------------------------------------|
B[-------------------------------------------------|
G[-------------------7--7--5--------------5--5--4--|
D[-7------(7)--------7--7--5--------------5--5--5--|
A[-5------(5)--------------------------------------|
E[-------------------------------------------------|
  Rpt 2 X


E----------------|
B----------------|
G----------------|
D-9------(9)-----|
A-7------(7)-----|
E-0------(0)-----|

 Backing for guitar solo
 [------------------PM---------------------------]
E-------------------------------------------------|
B-------------------------------------------------|
G-------------------------------------------------|
D-2-2-2-2-2-2-2-2-2-2-2-2-2-2-2-2-2-2-2-2-2-2-2-2-|
A-0-0-0-0-0-0-0-0-0-0-0-0-0-0-0-0-0-0-0-0-0-0-0-0-|
E-------------------------------------------------|Rpt 4 X

 End of guitar solo
E---------------|
B---------------|
G---------------|
D-5--7--2----2--|
A-3--5--0----0--|
E---------------|
 
 Rpt Verse
 Rpt Chorus
 Rpt main 2 X

 Guitar 1
 [----PM-----]
        h   h
E--------------|
B--------------|
G--------------|
D-2------------|
A-0-0-0-2-2-3--|
E--------------|Rpt 14 X

 Guitar 2 enter after the 7th time
E--------------|
B--------------|
G--------------|
D-7-7-7-9-9-10-|
A--------------|
E--------------|Rpt 7 X

 Ending

  Guitar 1
E[---------|
B[---------|
G[---------|
D[-2-------|
A[-0-------|
E[---------|
 [
 [Guitar 2
E[---------|
B[---------|
G[---------|
D[-7-------|
A[---------|
E[---------|

3 evening star
 Riff Intro

E|------------1--0-----------|-----------0-----------|--------------|
B|------3-----------3--------|-----3--------3--------|--------------|
G|*--------2-----------2-----|--------0--------0-----|-----0--------|
D|*--0--------------------0--|-----------------------|--------0-----|
A|---------------------------|--3-----------------3--|--------------|
E|---------------------------|-----------------------|--3-----------|
                                               2x       Verse
E---3-----1--0-----|-----------0--1------------||--||------------1------|
B---------------3--|--------3-----------3------||--||------3------------|
G------------------|-----2-----------2-----2--*||--||*--------2---------|
D------------------|--0-----------------------*||--||*--0---------------|
A------------------|---------------------------||--||-------------------|
E------------------|---------------------------||--||-------------------|

E---0-----------|-----------0-----------|-----------3-----1--0-----|----|
B------3--------|-----3--------3--------|-----------------------3--|----|
G---------2-----|--------0--------0-----|-----0--------------------|----|
D------------0--|-----------------------|--------0-----------------|----|
A---------------|--3-----------------3--|--------------------------|----|
E---------------|-----------------------|--3-----------------------|----|
                             3x
E------------0--1------------||--||------------1--0-----------|---------|
B---------3-----------3------||--||------3-----------3--------|---------|
G------2-----------2-----2--*||--||*--------2-----------2-----|---------|
D---0-----------------------*||--||*--0--------------------0--|---------|
A----------------------------||--||---------------------------|--3------|
E----------------------------||--||---------------------------|---------|
                              Chorus
E---------0-----------|------|-----------|--------|--------|-------|
B---3--------3--------|--3---|-----------|--------|--------|-------|
G------0--------0-----|--0--*|---12--12--|-----7--|--5-----|--7----|
D---------------------|--0--*|---12--12--|-----7--|--5--5--|--7----|
A------------------3--|--1---|---10--10--|-----5--|--3--5--|--5----|
E---------------------|------|-----------|--------|-----3--|-------|

                                                          Verse II
E|----------|--------|--------|---------------||--||-----------------|
B|----------|--------|--------|---------------||--||-----------------|
G|--12--12--|-----7--|--5-----|--7--7--5--5--*||--||*--2--2--2--2----|
D|--12--12--|-----7--|--5--5--|--7--7--5--5--*||--||*--2--2--2--2----|
A|--10--10--|-----5--|--3--5--|--5--5--3--3---||--||---0--0--0--0----|
E|----------|--------|-----3--|---------------||--||-----------------|

E|--------------|-----------------------|-----------|----------------|
B|--------------|-----------------------|-----------|----------------|
G|--5--5--5--5--|-----------------------|--5--------|--2--2--2--2----|
D|--5--5--5--5--|--3--3--3--3--3--3--3--|--5--5--5--|--2--2--2--2----|
A|--3--3--3--3--|--3--3--3--3--3--3--3--|--3--5--5--|--0--0--0--0----|
E|--------------|--1--1--1--1--1--1--1--|-----3--3--|----------------|


                     










E|--------------|--------|--------|------|
B|--------------|--------|--------|------|
G|--5--5--5--5--|--------|--5-----|-----*|
D|--5--5--5--5--|--3-----|--5--5--|--7--*|
A|--3--3--3--3--|--3--2--|--3--5--|--7---|
E|--------------|--1--0--|-----3--|--5---|


     riff    (solo)        2x
E|---------------|--------------|--------------|------------|
B|---------------|--------3-----|--------------|--3---------|
G|*--2--2--2--2--|--------2--0--|--2--2--2--2--|--2--0--2--*|
D|*--2--2--2--2--|--3--3--0--0--|--2--2--2--2--|--0--0--2--*|
A|---0--0--0--0--|--3--3--------|--0--0--0--0--|--------0---|
E|---------------|--1--1-----3--|--------------|-----3------|
Glenn solo

|---------------------|-------------------------|
|---------------------|--20b----20b~------------|
|--7------------------|-------------------------|
|--7------------------|-------------------------|
|--5--------5--3------|-------------------------|
|---------------------|-------------------------|

|--------------------------------|---------------------------------------|
|--20b--------17-20-17----17-----|---------------------------------------|
|----------------------19----19--|--21b----17--19--17--------L--/17--19--|
|--------------------------------|---------------------------------------|
|--------------------------------|---------------------------------------|
|--------------------------------|---------------------------------------|

|---------------------------------------|
|---------------------------------------|
|--19b--<>19b--17--19--17---------------|
|---------------------------------------|
|---------------------------------------|
|---------------------------------------|

Solo kk

|---------------------|-----------------------------|
|---------------------|-----------------------------|
|---------------------|-----------------------------|
|---------------------|--12---12---12--12-10--------|
|---------------------|--12---12---12--12-10--------|
|--0br----------------|-----------------------------|

|--20b--------17-20-17----17--------|--------------------|
|----------------------20-----20b~--|--L--------L--------|
|-------------14-17-14----14--------|--------------------|
|----------------------17-----17b---|--L--------L--------|
|-----------------------------------|--------------------|
|-----------------------------------|--------------------|

Continue solo next riff

                                  2x
E|------|-----|-----|---------||--||---------|------||--||----------|
B|---3--|--3--|-----|-----3---||--||---3-----|------||--||----------|
G|*--2--|--0--|--5--|--2--0--*||--||*--0--5--|--2--*||--||*---------|
D|*--0--|--0--|--5--|--2--0--*||--||*--0--5--|--2--*||--||*---------|
A|------|--1--|--3--|--0--1---||--||------3--|--0---||--||----------|
E|------|-----|-----|---------||--||---3-----|------||--||----------|


    Verse              Chorus             Bridge
E-------------||--||-------------||--||---------|---------||--||--------|
B-------------||--||-------------||--||---------|---------||--||--------|
G------------*||--||*-----------*||--||*--7-----|--------*||--||*-------|
D------------*||--||*-----------*||--||*--7--3--|--5--3--*||--||*-------|
A-------------||--||-------------||--||---5--3--|--5--3---||--||--------|
E-------------||--||-------------||--||------1--|--3--1---||--||--------|






    Chorus fade out
E---------|------|----------|-------|
B---------|------|----------|-------|
G---------|--10--|----------|--12--*|
D---8--8--|--10--|--10--10--|--12--*|
A---8--8--|--8---|--10--10--|--10---|
E---6--6--|------|--8---8---|-------|

4 hell bent for leather
|-----------------|-----------------|-----------------|--------------- 
|-----------------|-----------------|-----------------|--------------- 
|-----------------|-----------------|-----------------|--------------- 
|-----2-----------|-----3-----------|-----4-----------|-----5--------- 
|-----2-----------|-----3-----------|-----4-----------|-----5--------- 
|-----0-----------|-----1-----------|-----2-----------|-----3--------- 
                                                                       
                                                                       
---|--------------|--------------|--------------|--------------||----- 
---|--------------|--------------|--------------|--------------||----- 
---|--------------|--------------|--------------|--------------||----- 
---|-----6--------|-----7--------|-----3--------|-----2--------||----- 
---|-----6--------|-----7--------|-----3--------|-----2--------||----- 
---|-----4--------|-----5--------|-----1--------|-----0--------||----- 
                                                                       
                                                                       
------------||---------------------------------|---------------------- 
------------||---------------------------------|---------------------- 
------------||*-----------------------------5--|-----7--------5--2---- 
------------||*-----7--------------7--------5--|-----7--------5--2---- 
------------||---0-----0-----0--0-----0--0-----|--0-----0--0---------- 
------------||---------------------------------|---------------------- 
                                                                       
                                                                     
------|--------------------------|-------------------||--------------- 
------|--------------------------|-------------------||--------------- 
2--0--|-----------------------5--|--7--5--4--2----2--||--------------- 
2--0--|-----7--------7--------5--|--7--5--4--2----2--||--------------- 
------|--0-----0--0-----0--0-----|-----------3p0--0--||--------------- 
------|--------------------------|-------------------||--------------- 
                                                                       

Seek him here, .......                                                 
-------------------------------|------------------------------|------- 
-------------------------------|------------------------------|------- 
----------------------------5--|-------7----------5--2--2--0--|------- 
----7--------------7--------5--|-------7----------5--2--2--0--|------- 
-0-----0-----0--0-----0--0-----|--(0)-----(0)--0--------------|--0---- 
-------------------------------|------------------------------|------- 
                                                                      
                                               Wheels.......           
---------------------|----------------------|-----------------|------- 
---------------------|----------------------|-----------------|------- 
------------------5--|-----7--5--4--2----2--|-----------------|------- 
7--------7--------5--|-----7--5--4--2----2--|------7p5-----7--|------- 
---0--0-----0--0-----|--------------3p0--0--|---5--5----5--5--|--5---- 
---------------------|----------------------|-----------------|------- 
                                                                     
                      a glint of steel                                
--------------------|---------------|--------------------|------------ 
--------------------|---------------|--------------------|------------ 
--------5--7--7--7--|---7--5-----7--|--7--5-----5-----5--|------------ 
7p5-----5--7--7--7--|---7--5-----7--|--7--5-----5-----5--|------------ 
5----5-----------5--|---------5--5--|--5--5--5--3-----3--|------------ 
--------------------|---------------|--------------------|------------ 
                                                                       
Screams........                                                        
-|----------------|-------------------------|------------------------- 
-|----------------|-------------------------|------------------------- 
-|----------------|-------------5--7--7--7--|------------------------- 
-|-----7p5-----7--|-----7p5-----5--7--7--7--|------------------------- 
-|--5--5----5--5--|--5--5----5-----------5--|------------------------- 
-|----------------|-------------------------|------------------------- 
                                                                       

from a streak..........                                                
----------------------|---------------------|-----------|------------- 
----------------------|---------------------|-----------|------------- 
-7--5-----8--6-----9--|--7-----12-----12-2--|-----------|------------- 
-7--5-----8--6-----9--|--7-----12-----12-2--|-----------|------------- 
-------5--------6-----|-----7--10-----10--|-----------|------------- 
----------------------|---------------------|-----------|------------- 
                                                                       
Hell bent,.........                                                    
-|--------------------|--------------------------|-------------------- 
-|--------------------|--------------------------|-------------------- 
-|--------------------|--------------------------|-------------------- 
-|--------------------|--------------------------|-----------2--5----- 
-|--0--0--0--0--0--0--|--0--0--0--0--0--0--0-----|--2--5--3----------- 
-|--------------------|-----------------------3--|-------------------- 
                                                                       
                             There's many......                        
---|---------------------||------------|--------------|--------------- 
---|---------------------||------------|--------------|--------------- 
---|-----------------2--*||------------|--------------|--------------- 
---|-----0--------2--2--*||---2--------|-----3--------|--4------------ 
---|--0--------2-----0---||---2--------|-----3--------|--4------------ 
1--|--------3------------||---0--------|-----1--------|--2------------ 
                                                                       

                                                                       
|-----------|-----------|-----------|-----------|-----------|--------- 
|-----------|-----------|-----------|-----------|-----------|--------- 
|-----------|-----------|-----------|-----------|-----------|--9------ 
|--5--------|--6--------|--7--------|--3--------|--2--------|--9------ 
|--5--------|--6--------|--7--------|--3--------|--2--------|--7------ 
|--3--------|--4--------|--5--------|--1--------|--0--------|--0------ 

Glenn tipton solos

      T      T      T      T        T      T      T      T
|-12p5h8-12p5h8-12p5h8-12p5h8-|-12p5h8-12p5h8-12p5h8-12p5h8-|
|-----------------------------|-----------------------------|
|-----------------------------|-----------------------------|
|-----------------------------|-----------------------------|
|-----------------------------|-----------------------------|
|-----------------------------|-----------------------------|

       T      T      T      T        T       T      T      T
|-12p5h7-12p5h7-12p5h7-12p5h7-|-12p4h7-12p4h7-12p4h7-12p4h7-|
|-----------------------------|-----------------------------|
|-----------------------------|-----------------------------|
|-----------------------------|-----------------------------|
|-----------------------------|-----------------------------|
|-----------------------------|-----------------------------|

                                                               
   T      T      T      T        T       T      T      T
|-12p3h7-12p3h7-12p3h7-12p3h7-|-12p3h7-12p3h7-12p3h7-12p3h7-|
|-----------------------------|-----------------------------|
|-----------------------------|-----------------------------|
|-----------------------------|-----------------------------|
|-----------------------------|-----------------------------|
|-----------------------------|-----------------------------|

T      T      T      T        T       T
|-12p2h5-12p2h5-12p2h5-12p2h5-|-10p2h5-10p2h5h10p2------|
|-----------------------------|-------------------------|
|-----------------------------|-------------------------|
|-----------------------------|-------------------------|
|-----------------------------|-------------------------|
|-----------------------------|-------------------------|

|-17b19--------------------------|-17---------19-------------------|
|------20b22-20b22---------------|-----20b22-----------------------|
|------------------19pb21r--(19)-|---------------------------------|
|--------------------------------|---------------------------------|
|--------------------------------|---------------------------------|
|--------------------------------|---------------------------------|

|--------------------------------|---------------------------------|
|-20b21r20--17-20-17-----17------|-20-20---------------------------|
|--------------------------------|-------19-19-21-20-17------------|
|--------------------------------|---------------------------------|
|--------------------------------|---------------------------------|
|--------------------------------|---------------------------------|

|--------------------------------|----------------------------|
|------------20------------------|--7h8p7p5-7p5---------------|
|--17-----17---------------------|-----------------7p5--------|
|------19------------------------|----------------------------|
|--------------------------------|----------------------------|
|--------------------------------|----------------------------|

|--------------------------------|-------------------------------|
|--5p4p3-------------------------|-------------------------------|
|--------5p4p2-5p4p2-0h2p0-------|-------------------------------|
|--------------------------4-----|-h5p4p2-4p2p0------------------|
|--------------------------------|--------------3h5p3p2h3--------|
|--------------------------------|-------------------------------|



5 Take on the world


Riff A
|--------------------------------------------------------------------|
|--------------------------------------------------------------------|
|--------------------------------------------------------------------| 
|--5-/-7--(7)----X--X--5-/-7--(7)------------------------------------| 
|--5-/-7--(7)----X--X--5-/-7--(7)------------------------------------|
|--3-/-5--(5)----X--X--3-/-5--(5)------------------------------------|

Riff B
|--------------------------------------------------------------------|
|--------------------------------------------------------------------|
|--------------------------------------------------------------------| 
|--7-/-5---5-/-4---4--2----------------------------------------------| 
|--7-/-5---5-/-4---4--2----------------------------------------------|
|--5-/-3---3-/-2---2--0----------------------------------------------|

CHORUS
|--------------------------------------------------------------------|
|--------------------------------------------------------------------|
|-----5---7---------7---5--------------------------------------------|
|--5--5---7--5---5--7---5--5-----------------------------------------| 
|--5--3---5--5---5--5---3--5-----------------------------------------|
|--3---------3---3---------3-----------------------------------------|

6 burnin’ up

Intro / main riff

               [PM]                   [-PM-]
E------------------12-12\--------------------3--|
B------------------12-12\--------------------3--|
G--------------------------------------------0--|
D-------------x------------------------------0--|
A---7-7-5---5-x--------------7-7-5---5----------|
E-0-------7----7-0---------0-------7---7-6-5----|

               [PM]                    [PM]
E------------------12-12\-----------------------|
B------------------12-12\-----------------------|
G-----------------------------------------------|
D-------------x----------------------------7----|
A---7-7-5---5-x--------------7-7-5---5-5---5----|
E-0-------7----7-0---------0-------7-----5------|
               

 Verse
                                                 [-----PM----]
E-------------------------------------------------------------------|
B-------------------------------------------------------------------|
G-------------------------------------------------------------------|
D-9----(9)--9\7-/9----(9)--7--5----(5)--5\4--(4)--------------------|
A-7----(7)--7\5-/7----(7)--5--3----(3)--3\2--(2)----5-5---4-4-------|
E-0----(0)-------0----(0)-------------------------0-3-3-0-2-2-------|

                                                 [-----PM----]
E-------------------------------------------------------------------|
B-------------------------------------------------------------------|
G-------------------------------------------------------------------|
D-9----(9)--9\7-/9----(9)--7--5----(5)--5\4--(4)--------------------|
A-7----(7)--7\5-/7----(7)--5--3----(3)--3\2--(2)----5-5---7-7-------|
E-0----(0)-------0----(0)-------------------------0-3-3-0-5-5-------|


 Bridge

E--------------------------------------|
B--------------------------------------|
G-6/8-x-8-x-8---/11--6/8---8---8---\4--|
D-7/9-x-9-x-9---/12--7/9---9---9---\5--|
A-7/9-x-9-x-9-9-/12--7/9---9---9-9-\5--|
E-5/7-x-7-x-7-7-/9---5/7-x-7-x-7-7-\3--|

E[-------------------------------------------------------------------|
B[-------------------------------------------------------------------|
G[-4/6-x-6-x-6-----------------------------------------4----(4)------|
D[-5/7-x-7-x-7----2----------------(2)-----------------4----(4)------|
A[-5/7-x-7-x-7-7--2----------------(2)-----------------2----(2)------|
E[-3/5-x-5-x-5-5--0----------------(0)-------------------------------|
 [
 [Lead guitar line with Wah at end of bridge
 [                                                     ~~~~~~~~~~~
E[-------------------------------------------------------------------|
B[-------------------------------------------------------------------|
G[----------------9p-7-----------------------------------------------|
D[---------------------9p-7-9p-7\-5---7p-5------5--------------------|
A[----------------------------------7------7p-5---7p-5---------------|
E[-----------------------------------------------------7----(7)------|

 Rpt main riff, substituting last part for this.
               [PM]                   
E------------------12-12\-----------------------|
B------------------12-12\-----------------------|
G-----------------------------------------------|
D-------------x------------------------7--------|
A---7-7-5---5-x--------------7-7-5---x-5-x-7----|
E-0-------7----7-0---------0-------7-x---x-5----|
               

 Clean guitar
E--------------------------------------------------------------|
B-----------------1------(1)------3-------(3)------------------|
G-9------(9)------0------(0)------2-------(2)------2--4--2-----|
D-9------(9)------2------(2)------0-------(0)------0--0--0-----|
A-7------(7)------3------(3)-----------------------------------|
E-0---------------------------------------------------------3p-|
 Rpt 6 X

 Interlude guitar solo 1st part
     h ~~~~~~~~~~~~~~~~~~~~~~~~~~~~~~~~~~~~To feed back. Pick scrape
E-10-12-----------------------(12)--------\----------------\-\------|
B-----------------------------------------------------------\-\-----|
G------------------------------------------------------------\-\----|
D-------------------------------------------------------------------|
A-------------------------------------------------------------------|
E-------------------------------------------------------------------|
     h          ph   ~~~~~~~~~~~~~~~~~     To Feed back
E-------------------------------------------------------------------|
B-12-15p12--15b-15b17------------(17)----17rb\----------------------|
G-------------------------------------------------------------------|
D-------------------------------------------------------------------|
A-------------------------------------------------------------------|
E-------------------------------------------------------------------|

 Interlude guitar solo 2nd part  
   h  
E-12-15p12-------(12)-----------------------------12--------(12)----|
B-------------------------------------------------------------------|
G-------------------------------------------------------------------|
D----------------------------------7-----(7)------------------------|
A-------------------------------------------------------------------|
E-------------------------------------------------------------------|
              ~~~~~~~~~~~~~~~~~~~~~~~~~~~~~~~~~~~~~~~~~~~~~~~
E------------19-----------------------------------------------------|
B-------------------------------------------------------------------|
G-12-11-------------------------------------------------------------|
D-------------------------------------------------------------------|
A-------------------------------------------------------------------|
E-------------------------------------------------------------------|




  Guitar 1
E[-----------------------------------------------------|
B[-----------------------------------------------------|
G[-----------------------------------------------------|
D[-----------------------------------------------------|
A[-7/9--9-9--9--9-x-11\-7--7/9--------------6-6--7-7---|
E[-5/7--7-7--7--7-x-10\-5--5/7--x-x--x--x-x-4-4--5-5---|
 [
 [Guitar 2                           Pick scrape
E[-----------------------------------------------------|
B[-----------------------------------\-\---------------|
G[------------------------------------\-\--------------|
D[-7-9--9-9--9--9----------7-9---------\-\-------------|
A[--------------------------------------\--------------|
E[-----------------------------------------------------|

  Guitar 1                                        ~~~~~
E[-----------------------------------------------------|
B[-----------------------------------------------------|
G[-----------------------------------------------------|
D[-----------------------------------------------------|
A[-7/9--9-9--9--9-x-11\-7--7/9--\--------------5--7b5b-|
E[-5/7--7-7--7--7-x-10\-5--5/7--\------------7---------|
 [
 [Guitar 2                           Pick scrape
E[-----------------------------------------------------|
B[-----------------------------------\-\---------------|
G[------------------------------------\-\--------------|
D[-7-9--9-9--9--9----------7-9---------\-\-------------|
A[--------------------------------------\--------------|
E[-----------------------------------------------------|

 Backing for guitar solo

E-----------------------------------------------------|
B-----------------------------------------------------|
G-----------------------------------------------------|
D-4/6--6-6--6--6-x-9\-4--4/6-------------3-3--5-5-----|
A-2/4--4-4--4--4-x-7\-2--2/4-x-x--x--x-x-1-1--3-3-----|
E-----------------------------------------------------|
 Rpt 6 X

 Rpt verse
 Rpt Bridge
 Rpt main riff

Ending

E--------------------------------------------|
B--------------------------------------------|
G--------------------------------------------|
D-7----------------(7)---------------9\------|
A-5----------------(5)---------------7\------|
E--------------------------------------------|


7 Killing machine
Tune Gtr to E

Riff A
|------------------------------------|
|---------------------------3--------|
|---------------------------2--------|
|-----4-----4-4-----4-4-------4~-----|
|------------------------------------|
|--2-----2-------2-------2-----------|
                                     
Riff B
|------------------------------------|
|---------------------------3--------|
|-----4-----4-4-----4-4-------4~-----|
|------------------------------------| 
|--2-----2-------2-------2-----------|
|------------------------------------|

Riff C
|--------------------------------|
|--------------------------------|
|--------------------------------|
|-----7-----7-7-----9-7h9p7------| 
|---------------------------9----|
|--5-----5-------7---------------|
                                      
Riff D
|-------------------------------------------------|
|-------------------------------------------------|
|--------------------2--4--------------------2----| 
|--------------------2--4--------------------2----| 
|--2--4--2--4-2-4-2--0--2--2--4--2--4-2-4-2--0----|
|--0--2--0--2-0-2-0--------0--2--0--2-0-2-0-------|

Riff E
|----------------------|
|----------------------|
|-----4p2--------------|
|----------4p2---------|
|--2------------4~-----|
|----------------------|

Riff F
|------------------------------|----------------------------------|
|------------------------------|----------------------------------|
|---------------------------5--|----------------------------------|
|-----7-5h7p5-------7-5h7p5----|--7-6-5---5-----------------------|
|--0----------7--0-------------|--------7---7-6--7-6-5---5--------|
|------------------------------|-----------------------7---7-6----|

Riff G
|--------------------------------|
|--------------------------------|
|--------------------------------|
|-----6-----6-6-----6-6-----6----|
|--------------------------------|
|--4-----4-------4-------4-------|

END
|--------------|
|--------------|
|--2-2---------|
|--2-2--2-4----|
|--0-0--2-4----|
|-------0-2----|


8 running wild
Tunning E A D G B E


 Intro
     [---PM---]
E---------------|
B---------------|
G-9-9-----------|
D-9-9-----------|
A-7-7-----------|
E-----0-0-0-0---|Rpt 4 X before drums enter. 
                 Rpt 3 X before verse starts

 Verse
     [--PM---]    [--PM---]   [--PM---]
E-------------------------------------------------|
B-------------------------------------------------|
G-9-9----------5-5---------7-7--------------------|
D-9-9----------5-5---------7-7---------------4-4--|
A-7-7----------3-3-3-3-3-3-5-5-5-5-5-5-5-5---2-2--|
E-----0-0-0-0--------------------------3-3-x------|

     [--PM---]    [--PM---]
E-------------------------------------------|
B-------------------------------------------|
G-9-9----------5-5---------7---5---2---2----|
D-9-9----------5-5---------7---5---2---2----|
A-7-7----------3-3-3-3-3-3-5---3---0---0----|
E-----0-0-0-0-------------------------------|

     [--PM---]    [--PM---]   [--PM---]
E-------------------------------------------------|
B-------------------------------------------------|
G-9-9----------5-5---------7-7--------------------|
D-9-9----------5-5---------7-7---------------4-4--|
A-7-7----------3-3-3-3-3-3-5-5-5-5-5-5-5-5---2-2--|
E-----0-0-0-0--------------------------3-3-x------|

     [--PM---]    [--PM---]
E-----------------------------------|
B-----------------------------------|
G-9-9----------5-5---------7---(7)--|
D-9-9----------5-5---------7---(7)--|
A-7-7----------3-3-3-3-3-3-5---(5)--|
E-----0-0-0-0-----------------------|


 Chorus
[PM][PM] [PM]     
E--------------------------|
B--------------------------|
G--------------------------|
D---5---4---4-5-7----------|
A---5---4---4-5-7----------|
E-0---0---0-------0-3p0----|Rpt 2 X

 Rpt Verse and Chorus

 Backing for solo
[PM][PM] [PM]
E--------------------------|
B--------------------------|
G---2---1---1-2-4----------|
D---2---1---1-2-4----------|
A-------------------0------|
E-2---2---2-------2---2----|Rpt 3 X

 End of solo riff
[PM]
E----------------------|
B----------------------|
G---2------------------|
D---2--4--4--6-6-6-6---|
A------4--2--4-4-4-4---|
E-2----2---------------|

 After solo

   [PM] [PM] h
E---------------|
B---------------|
G------5--------|
D-7----5---4-5--|
A-0--0---0------|
E---------------|Rpt 16 X
 This guitar enters from the 9th time onwards
E-----------------------------------------------------|
B-----------------------------------------------------|
G-----------------------------------------------------|
D-2----(2)-----4----(4)-----5----(5)-----7----(7)-----|
A-0----(0)-----2----(2)-----3----(3)-----5----(5)-----|
E-----------------------------------------------------|Rpt 2 X

                              [--PM---]     [--PM---]
E-----------------------------------------------------|
B-----------------------------------------------------|
G---------------------------9-9---------9-9-----------|
D-9---(9)------9---(9)------9-9---------9-9-----------|
A-7---(7)------7---(7)------7-7---------7-7-----------|
E-0---(0)------0---(0)------0---0-0-0-0-----0-0-0-0---|

 Rpt Verse
 Rpt Chorus to fade.

9 before the dawn


Intro
    Em                Am                D                   B7
 
  Gtr I
|-----------------|-----------------|---------2---------|------------------|
|---0---0---0---0-|---1---1-0-1-----|---3---3---3----0--|---0---0-4-0---0--|
|-----0-------0---|-----2-------2-0-|-----2-------2-----|-----2-------2----|
|---------2-------|-----------------|-0-----------------|------------------|
|-----------------|-0---------------|-------------------|-2----------------|
|-0---------------|-----------------|-------------------|------------------|

Gtr I
  Em                Am                B7                Em
|-----------------|-----------------|---------2-0-----|-0---------------|
|---0---0---0---0-|---1---1-0-1-----|---0---0-----4-0-|---0---0---0---0-|
|-----0-------0---|-----2-------2-0-|-----2-----------|-----0-------0---|
|---------2-------|-----------------|-----------------|---------2-------|
|-----------------|-0---------------|-2---------------|-----------------|
|-0---------------|-----------------|-----------------|-0---------------|

   Verse

Gtr I
    Em                Am                D                   B7
||------------------|-----------------|---------2---------|------------------|
||----0---0---0---0-|---1---1-0-1-----|---3---3---3----0--|---0---0-4-0---0--|
||------0-------0---|-----2-------2-0-|-----2-------2-----|-----2-------2----|
||----------2-------|-----------------|-0-----------------|------------------|
||------------------|-0---------------|-------------------|-2----------------|
||--0---------------|-----------------|-------------------|------------------|

Gtr I
  Em                Am                B7                Em
|-----------------|-----------------|---------2-0-----|-0----------------||
|---0---0---0---0-|---1---1-0-1-----|---0---0-----4-0-|---0---0---0---0--||
|-----0-------0---|-----2-------2-0-|-----2-----------|-----0-------0----||
|---------2-------|-----------------|-----------------|---------2--------||
|-----------------|-0---------------|-2---------------|------------------||
|-0---------------|-----------------|-----------------|-0----------------||

Gtr I
    Em                Am                D                   B7
||------------------|-----------------|---------2---------|------------------|
||----0---0---0---0-|---1---1-0-1-----|---3---3---3----0--|---0---0-4-0---0--|
||------0-------0---|-----2-------2-0-|-----2-------2-----|-----2-------2----|
||----------2-------|-----------------|-0-----------------|------------------|
||------------------|-0---------------|-------------------|-2----------------|
||--0---------------|-----------------|-------------------|------------------|

Gtr I
  Em                Am                B7                Em
|-----------------|-----------------|---------2-0-----|-0----------------||
|---0---0---0---0-|---1---1-0-1-----|---0---0-----4-0-|---0---0---0---0--||
|-----0-------0---|-----2-------2-0-|-----2-----------|-----0-------0----||
|---------2-------|-----------------|-----------------|---------2--------||
|-----------------|-0---------------|-2---------------|------------------||
|-0---------------|-----------------|-----------------|-0----------------||

 Gtr I              Chorus
  Em                 C
|-0---------------||----------8-----8-|
|---0---0---0---0-||------8-----8-----|
|-----0-------0---||----9---9-----9---|
|---------2-------||-10---------------|
|-----------------||------------------|
|-0---------------||------------------|

Gtr I
  G                         E7
|-------------10-------10-|-----7---10-7---10-|
|-------12-------12-------|---9---9------9----|
|----12----12-------12----|-------------------|
|-------------------------|-------------------|
|-10----------------------|-7-----------------|
|-------------------------|-------------------|

Gtr I
  Am                        C
|-------------12-------12-|----------8-----8-|
|-------13-------13-------|------8-----8-----|
|----14----14-------14----|----9---9-----9---|
|-------------------------|-10---------------|
|-12----------------------|------------------|
|-------------------------|------------------|

Gtr I
  G                 D7
|-----------------|---------2-------|
|-3---0---3-0-----|-----3-1---3-1---|
|---0---0-----0---|---2-----------2-|
|---------------0-|-0---------------|
|-----------------|-----------------|
|-3---------------|-----------------|

Gtr I
  D7                C                 G                 Emaj7
|---------2-------|-----------------|-----------------|-----------------|
|---3---1---3---1-|---------1-----1-|-----0---3-0---3-|-----0---3-0---3-|
|-----2-------2---|-----0-----0-----|---0---0-----0---|---1---1-----1---|
|-0---------------|---2---2-----2---|-----------------|-----------------|
|-----------------|-3---------------|-----------------|-----------------|
|-----------------|-----------------|-3---------------|-0---------------|
Gtr I
  Am                Am                C                 B7
|---------0-----0-|---------0-----0-|-----0---0-----0-|---------2-------|
|-----1-----1-----|-----1-----1-----|-----------1-----|---0-3-0---3-0---|
|---2---2-----2---|---2---2-----2---|---0---0-----0---|-----------------|
|-----------------|-----------------|-----------------|---------------4-|
|-0---------------|-0---------------|-3---------------|-2---------------|
|-----------------|-----------------|-----------------|-----------------|
Gtr I
  B7                Em                Em
|---------2-------|---------0-------|---------0-------||
|---0-3-0---3-0---|-----0-----0---0-|-----0-----0---0-||
|-----------------|-------0-----0---|---0---0-----0---||
|---------------4-|---2-------------|-----------------||
|-2---------------|-----------------|-----------------||
|-----------------|-0---------------|-0---------------||



 Guitar solo ( Double guitar starts from here)
  C                                   D
  Gtr II
|-----------------------------------|--------------------------------------------|
|-----------------------------------|-10b12r(10)b12r(10)b12r(10)b12==(10)r-----8-|
|-2b4r(2)b4r(2)b4r(2)b4==(2)r-----0-|--------------------------------------------|
|-----------------------------------|--------------------------------------------|
|-----------------------------------|--------------------------------------------|
|-----------------------------------|--------------------------------------------|
|
| Gtr I
|-----------------------------------|----------------------------------2---------|
|-------------------------1-------1-|-----------------3--------------------3---3-|
|------------0----------------0-----|---------2---------------2--------------2---|
|------2-----------2------------2---|--------------------------------------------|
|-3---------------------------------|--2-----------------------------------------|
|-----------------------------------|--------------------------------------------|

Gtr II
  Am                         Am
   ~~                         ~~~
|--------------------------|-----------------------|
|-10-------(10)-[8]---10-8-|-----------------------|
|--------------------------|--9------------(9)\----|
|--------------------------|-----------------------|
|--------------------------|-----------------------|
|--------------------------|-----------------------|
|Gtr I
|------------0---------0---|-----------0--------0--|
|------1---------1---------|-------1-----1---------|
|----2---2----------2------|-----2---2------2------|
|--------------------------|-----------------------|
|--0-----------------------|--0--------------------|
|--------------------------|-----------------------|

  C                                   D
  Gtr II
|-----------------------------------|--------------------------------------------|
|-----------------------------------|-10b12r(10)b12r(10)b12r(10)b12==(10)r-----8-|
|-2b4r(2)b4r(2)b4r(2)b4==(2)r-----0-|--------------------------------------------|
|-----------------------------------|--------------------------------------------|
|-----------------------------------|--------------------------------------------|
|-----------------------------------|--------------------------------------------|
|
| Gtr I
|-----------------------------------|----------------------------------2---------|
|-------------------------1-------1-|-----------------3--------------------3---3-|
|------------0----------------0-----|---------2---------------2--------------2---|
|------2-----------2------------2---|--------------------------------------------|
|-3---------------------------------|--2-----------------------------------------|
|-----------------------------------|--------------------------------------------|

Gtr II
  Am                       Am
   ~~
|------------------------|-12-----------12-(12)--|
|-10-------(10)-8---10-8-|------------------12---|
|------------------------|-----------------------|
|------------------------|-----------------------|
|------------------------|-----------------------|
|------------------------|-----------------------|
|Gtr I
|------------0-------0---|----------0--------0---|
|------1--------1--------|------1-----1----------|
|----2---2--------2------|----2---2------2-------|
|------------------------|-----------------------|
|--0---------------------|--0--------------------|
|------------------------|-----------------------|

Gtr II
  C                       D
   ~~~~~
|-----------------------|---------------------------|
|-15b17-----------15-12-|---------------------------|
|-----------------------|-14b15r==12-14-------12-14-|
|-----------------------|---------------------------|
|-----------------------|---------------------------|
|-----------------------|---------------------------|
|Gtr I
|-----------------------|-----------------2---------|
|-------------1-------1-|-------------3-----3-----3-|
|---------0-----0-------|-------2-------2------2----|
|-------2---2------2----|---------------------------|
|--3--------------------|--2------------------------|
|-----------------------|---------------------------|

Gtr II
  Am                        Am
                             ~~
|-------------------------|---------------------------------------10-|
|-------------------------|--------------------------10---12-13------|
|-16----------------------|----------------9---11-12-----------------|
|----12-10-9-9/-10-10/-12-|------9-10---12---------------------------|
|-------------------------|-12---------------------------------------|
|-------------------------|------------------------------------------|
|Gtr I
|------------0----------0-|------------------0------------------0----|
|--------1-------1--------|------1-----------------1-----------------|
|-----2----2--------2-----|----2------2-----------------2------------|
|-------------------------|------------------------------------------|
|--0----------------------|--0---------------------------------------|
|-------------------------|------------------------------------------|

Gtr II
  C                         B7
   ~~                                ~~~~~~
|-12-------(12)-14---15---|-17b19---17b19========(17)r-15-|
|-------------------------|-------------------------------|
|-------------------------|-------------------------------|
|-------------------------|-------------------------------|
|-------------------------|-------------------------------|
|-------------------------|-------------------------------|
|Gtr I
|------0-----0----------0-|------------------2------------|
|----------------1--------|-------0--3-----0---3---0------|
|----0---0---------0------|-------------------------------|
|-------------------------|-----------------------------4-|
|--3----------------------|--2----------------------------|
|-------------------------|-------------------------------|
                            Chorus
Gtr II
  Em                         C
                   ~          ~~
|-------------------------||------------------|
|-------------------------||------------------|
|-------------------------||------------------|
|-14-12-10-9--------------||------------------|
|------------12-10-7------||------------------|
|----------------------10-||--8---------------|
|Gtr I
|-------------0------0----||----------8-----8-|
|--------0-------0--------||------8-----8-----|
|-----0----0-------0------||----9---9-----9---|
|-------------------------||-10---------------|
|-------------------------||------------------|
|--0----------------------||------------------|

  G                         E7
  Gtr I
|-------------10-------10-|-----7---10-7---10-|
|-------12-------12-------|---9---9------9----|
|----12----12-------12----|-------------------|
|-------------------------|-------------------|
|-10----------------------|-7-----------------|
|-------------------------|-------------------|

Gtr I

  Am                        C
|-------------12-------12-|----------8-----8-|
|-------13-------13-------|------8-----8-----|
|----14----14-------14----|----9---9-----9---|
|-------------------------|-10---------------|
|-12----------------------|------------------|
|-------------------------|------------------|


Gtr I
  G                 D7                 D7                 C
|-----------------|----------2-------|----------2-------|-----------------|
|-3---0---3-0-----|------3-1---3-1---|----3---1---3---1-|---------1-----1-|
|---0---0-----0---|----2-----------2-|------2-------2---|-----0-----0-----|
|---------------0-|--0---------------|--0---------------|---2---2-----2---|
|-----------------|------------------|------------------|-3---------------|
|-3---------------|------------------|------------------|-----------------|

Gtr I

  G                 Emaj7             Am                Am
|-----------------|-----------------|---------0-----0-|---------0-----0-|
|-----0---3-0---3-|-----0---3-0---3-|-----1-----1-----|-----1-----1-----|
|---0---0-----0---|---1---1-----1---|---2---2-----2---|---2---2-----2---|
|-----------------|-----------------|-----------------|-----------------|
|-----------------|-----------------|-0---------------|-0---------------|
|-3---------------|-0---------------|-----------------|-----------------|

Gtr I
                                                        Final verse
  C                 B7                B7                 Em
|-----0---0-----0-|---------2-------|---------2-------||-----------------|
|-----------1-----|---0-3-0---3-0---|---0-3-0---3-0---||-----0-----0---0-|
|---0---0-----0---|-----------------|-----------------||---0---0-----0---|
|-----------------|---------------4-|---------------4-||---------2-------|
|-3---------------|-2---------------|-2---------------||-----------------|
|-----------------|-----------------|-----------------||-0---------------|

Gtr I
  Am                D                   B7                Em
|-----------------|---------2---------|-----------------|-----------------|
|---1---1-0-1-----|---3---3---3----3--|---0---0-4-0---0-|---0---0---0---0-|
|-----2-------2-0-|-----2-------2-----|-----2-------2---|-----0-------0---|
|-----------------|-0-----------------|-----------------|---------2-------|
|-0---------------|-------------------|-2---------------|-----------------|
|-----------------|-------------------|-----------------|-0---------------|

Gtr I

  Am                B7                Em
|-----------------|-----------------|-^0----------|-(0)-----------T|
|---1---1-0-1-----|---0---0---0-----|-^0----------|-(0)-----------h|
|-----2-------2-0-|-----2---2---0---|-^0----------|-(0)-----------e|
|-----------------|---------------4-|-^2----------|-(2)-----------E|
|-0---------------|-2---------------|-^2----------|-(2)-----------N|
|-----------------|-----------------|-^0----------|-(0)-----------D|

Tunning E A D G B E
 

Intro / Main Riff

    h        [PM]   h               h                   ~~~~
E-----------------------------------------------------------|
B-----------------------------------------------------------|
G-----2---------------2-2---2---------2-----------------2---|
D------------2-2--------------------------------------------|
A-3-4----3p0-0-0--3-4-----3-------3-4---3p0-----3p0---------|
E-------------------------------------------3p0-----3p0-----|

 Drums enter 2nd time.
 Rpt once more before vocals enter.

 Verse
    h               h               h                   ~~~~
E-----------------------------------------------------------|
B-----------------------------------------------------------|
G-----2---------------2-2---2---------2-----------------2---|
D------------2-2--------------------------------------------|
A-3-4----3p0-0-0--3-4-----3-------3-4---3p0-----3p0---------|
E-------------------------------------------3p0-----3p0-----|
    h               h               h 
E-----------------------------------------------------------|
B-----------------------------------------------------------|
G-----2---------------2-2---2---------2-----------------2---|
D------------2-2----------------------------------------2---|
A-3-4----3p0-0-0--3-4-----3-------3-4---3p0-----3p0-----0---|
E-------------------------------------------3p0-----3p0-----|
                                                         Rpt
 
 Chorus

E----------------------------------------|
B----------------------------------------|
G----------------------------------------|
D--------------7/9\7------------7---7----|
A-7/9\7/9\-7/9-5/7\5--7/9\7/9\--5---5-7--|
E-5/7\5/7\-5/7--------5/7\5/7\--------5--|

                           [--PM--]
E----------------------------------------|
B----------------------------------------|
G---------------------2------------------|
D--------------7/9\7--2------------------|
A-7/9\7/9\-7/9-5/7\5--0----5-5-5-5/7-7---|
E-5/7\5/7\-5/7-------------3-3-3-3/5-5---|


E----------------------------------------|
B----------------------------------------|
G----------------------------------------|
D--------------7/9\7------------7---7----|
A-7/9\7/9\-7/9-5/7\5--7/9\7/9\--5---5-7--|
E-5/7\5/7\-5/7--------5/7\5/7\--------5--|

                           [--PM--]
E----------------------------------------|
B----------------------------------------|
G---------------------2------------------|
D--------------7/9\7--2------------------|
A-7/9\7/9\-7/9-5/7\5--0----5-5-5-5-2-----|
E-5/7\5/7\-5/7-------------3-3-3-3-0-----|

 Rpt verse and chorus



E------------------------------|
B------------------------------|
G------------------------------|
D--------------------------7---|
A-2-2---2-2---2-2---2-2--x-5---|
E-0-0---0-0---0-0---0-0--x-----|Rpt 2 X

*The green manalishi(With The Two-Pronged Crown)
Tuning: standard

    Em                                         C                         D
e|---------------------|--------------------|-----------------|-----------------|
B|---------------------|--------------------|-----------------|-----------------|
G|---------------------|--------------------|-----------------|-----------------|
D|--9-7-9~---12-12-12--|--7--7-7----9--9-7--|--7-5-5~-----5~--|--4--5~---7-7-9--|
A|--9-7-9~---12-12-12--|--7--7-7----9--9-7--|--7-5-5~-----5~--|--4--5~---7-7-9--|
E|--7-5-7~---10-10-10--|--5--5-5----7--7-5--|--5-3-3~-----3~--|--2--3~---5-5-7--|

         G A   G      A  G   Em              G  A    G      A   G   Em    G
e|-----------------|------------|------------------------|-------------|--------|
B|-----------------|------------|------------------------|-------------|--------|
G|-----------------|------------|------------------------|-------------|--------|
D|--2----5-7---5~--|--7--5-5-2--|--2------2--5--7----5~--|--7---5-5-2--|----5---|
A|--2----5-7---5~--|--7--5-5-2--|--2------2--5--7----5~--|--7---5-5-2--|----5---|
E|--0----3-5---3~--|--5--3-3-0--|--0------0--3--5----3~--|--5---3-3-0--|----3---|

    A     Em NC                Em      G/D     Em  D     Em      G/D         D
e|-----|--------------------|---------------|---------|----------------|--------|
B|-----|--------------------|---------------|---------|----------------|--------|
G|-----|--------------------|--9-7-9~---7~--|--9---7--|--9-7-9~----7~--|--7--7--|
D|--7--|--2--5-4-----2------|--9-7-9~---5~--|--9---7--|--9-7-9~----5~--|--5--7--|
A|--7--|--2------2-5--------|--7-5-7~---5~--|--7---5--|--7-5-7~----5~--|--5--5--|
E|--5--|--0------------3-2--|--0------------|---------|----------------|--------|

                        A/E    Em                                      C
e|-----------|--------|-----|--------------------|----------------|-------------|
B|-----------|--------|-----|--------------------|----------------|-------------|
G|--7--7--7--|--7--7--|--9--|--9-7-9~--12-12-12--|--7-7-7--9-9-7--|--7-5-5~--5~-|
D|--7--7--7--|--7--7--|--7--|--9-7-9~--12-12-12--|--7-7-7--9-9-7--|--7-5-5~--5~-|
A|--5--5--5--|--5--5--|--7--|--7-5-7~--10-10-10--|--5-5-5--7-7-5--|--5-3-3~--3~-|
E|-----------|--------|-----|--------------------|----------------|-------------|

            D
e|-----------------|--------------------|
B|-----------------|--------------------|
G|--4-5~----7-7-9--|--9--4--5~---7-7-9--|
D|--4-5~----7-7-9--|--9--4--5~---7-7-9--|
A|--2-3~----5-5-7--|--7--2--3~---5-5-7--|
E|-----------------|--------------------|

Solo:
e|---------------------|------------------|-----------------|------12-12h---------12--------|
B|---------------------|------------------|-----------------|--/12-------15----------15-15--|
G|--/2--/2~--/2--2--2~-|--\2--2--2~~~--2--|--2p0--0h2-------|---------------14-14-----------|
D|---------------------|------------------|------------2~~~-|-------------------------------|
A|---------------------|------------------|-----------------|-------------------------------|
E|---------------------|------------------|-----------------|-------------------------------|

e|---------------|--12-14-15-/15-----\15--|--12h15-------12h----------------------|
B|--/15---/15~~~-|------------------------|--------/15------15p12h-----/12h15p12--|
G|---------------|------------------------|-----------------------14-14-----------|
D|---------------|------------------------|---------------------------------------|
A|---------------|------------------------|---------------------------------------|
E|---------------|------------------------|---------------------------------------|

e|------------------------------------------|---------|---------------------------|
B|-----12-----------------------------------|---------|---------------------------|
G|--14----/14------12h---------------13~~~--|---------|---------------------------|
D|--------------------14p12h---12h14--------|---------|-----------------10-12p10--|
A|--------------------------14--------------|---------|--------10-12/14-----------|
E|------------------------------------------|--10/12--|--10/12--------------------|

e|----------------------|---------------------------------|--10/12-12-12--|
B|----------------------|--/15----------------------------|---------------|
G|--12-11----------/14--|-------14--12--/14-\14-12~~~-----|---------------|
D|--------14~~~---------|--------------------------14~~~--|---------------|
A|----------------------|---------------------------------|---------------|
E|----------------------|---------------------------------|---------------|

e|--10/12-15p12-15p12--------------------------------|--------------|---------------------------|
B|--------------------15p12-15p12--------------------|--------------|---------------------------|
G|--------------------------------14p12-14p12--------|--12--12------|--12-12--------------------|
D|--------------------------------------------14~~~--|----------14--|--------14-12-14-----------|
A|---------------------------------------------------|--------------|-----------------12-14-----|
E|---------------------------------------------------|--------------|-----------------------15--|

e|---------|
B|---------|
G|---------|
D|---------|
A|---------|
E|--12~~~--|

                                       (Guitar 1)
    Em                                         C                         D
e|---------------------|--------------------|-----------------|-----------------|
B|---------------------|--------------------|-----------------|-----------------|
G|---------------------|--------------------|-----------------|-----------------|
D|--9-7-9~---12-12-12--|--7--7-7----9--9-7--|--7-5-5~-----5~--|--4--5~---7-7-9--|
A|--9-7-9~---12-12-12--|--7--7-7----9--9-7--|--7-5-5~-----5~--|--4--5~---7-7-9--|
E|--7-5-7~---10-10-10--|--5--5-5----7--7-5--|--5-3-3~-----3~--|--2--3~---5-5-7--|
 |                                                                              |
 |                                     (Guitar 2)                               |
e|---------------------|--------------------|-----------------|-----------------|
B|---------------------|--------------------|-----------------|-----------------|
G|---------------------|--------------------|-----------------|-----------------|
D|---------------4--5--|--/7~----------5-4--|-----------------|-----------------|
A|--/7~----------------|--------------------|--/7~~~----------|-----------------|
E|---------------------|--------------------|-----------------|-----------------|

                                       (Guitar 1)
    Em                                         C                         D
e|---------------------|--------------------|-----------------|-----------------|
B|---------------------|--------------------|-----------------|-----------------|
G|---------------------|--------------------|-----------------|-----------------|
D|--9-7-9~---12-12-12--|--7--7-7----9--9-7--|--7-5-5~-----5~--|--4--5~---7-7-9--|
A|--9-7-9~---12-12-12--|--7--7-7----9--9-7--|--7-5-5~-----5~--|--4--5~---7-7-9--|
E|--7-5-7~---10-10-10--|--5--5-5----7--7-5--|--5-3-3~-----3~--|--2--3~---5-5-7--|
 |                                                                              |
 |                                     (Guitar 2)                               |
e|---------------------|--------------------|-----------------|-----------------|
B|---------------------|-----------------8--|--5~~~-----------|-----------------|
G|---------------------|---------------4----|-----------------|-----------------|
D|---------------4--5--|--/7~---------------|-----------------|-----------------|
A|--/7~----------------|--------------------|-----------------|-----------------|
E|---------------------|--------------------|-----------------|-----------------|

    Em NC
e|----------------------|-------------------|-----|
B|----------------------|-------------------|-----|
G|----------------------|-------------------|-----|
D|------5-4-----2-------|--------------5-4--|--2--|
A|----------2-5---2-5---|--3-2-------2------|-----|
E|--0-------------------|------0-2-3--------|-----|



All the song in this album was made for other guitar players not for me
I only changes the part’s that i thing will be sound better thanks all the metalmaniacs 
long live judas priest
from:ju.da.s
Metalgod.jp@hotmail.com
comments
We did not receive enough feedback on this tab! Please rate:
print report bad tab
1 2 3 4 5
1 comment total.
0 reply
shauntracy64 wrote on March 28 2014, 07:21 pm

I Apolagize for my earlier comments, I forgot to log in and i is a stupid!

My Sincerest Apologies
Shaun Tracy The Flip Case
Unstable Ignoramous

I want to post or [tab]
guest
You may want to rate the tab now too:
select rating
Please do not post tabs as comments. Select "correction" instead!