Oops, an error
Loading. Please wait.

Let Us Prey Tab

1,195 views 1 this week
no commentswrite comment
1 2 3 4 5
please rate
Autoscroll
+/-
esc
set tempo
stop
Contributor
WARNING: You are trying to view
                                    content from Ultimate-Guitar.com
                                    in an unauthorized application,
                                    which is prohibited.

                                    Please use an official Ultimate
                                    Guitar Tabs application for iPhone,
                                    iPad or Android to access legitimate
                                    chords, guitar, bass, and drum tabs
                                    from Ultimate-Guitar.com database.

                                    Type "ultimate guitar tabs" in Apple
                                    App Store's or Android Market's
                                    search to find the application.
Band:  Judas Priest
Album: Sin After Sin
Song:  Let Us Prey

Copyright (c)  (CBS) (1977)

Version 1.0 - (23/02/05)

Transcribed By: Steve
Email:          stephen.elvidge1@ntlwotld.com


.  - palm mute           /  - slide up to
\  - slide down to       ~  - vibrato
h  - hammer on           b  - Bend
p  - pull off            Suffixes for bend
t  - tap                 f  - full bend    h - half bend
ph - pinched harmonic    q  - quarter bend t - tap bend
*  - see comment         ^  - Hold bend    r release bend
x  - Stuccatto           ~  - vibrato bend
,  - slight palm mute    () - ghost note, sustained note
"  - tremolo note        <> - Trill

Tunning E A D G B E

 Intro
 Use vibrato throughout

  D                  G             D                   A
 Guitar 1
E[-------------------------------------------------------------------|
B[-------------------------------------15-15-------15-\-10----(10)---|
G[-14-14-14------14-\-12----(12)---/14-------------------------------|
D[-------------------------------------------------------------------|
A[-------------------------------------------------------------------|
E[-------------------------------------------------------------------|
 [Guitar 2
E[-------------------------------------------------------------------|
B[-------------------------------------------------------------------|
G[-11-11-11------11-\-7-----(7)----/11-11-11-------11-\-9-----(9)----|
D[-------------------------------------------------------------------|
A[-------------------------------------------------------------------|
E[-------------------------------------------------------------------|
 [Guitar 3
E[------------------------------------------------------------------|
B[-------------------------------------------------------------------|
G[-------------------------------------------------------------------|
D[-12-12-12------12-\-9-----(9)----/12-12-12-------12-\-7-----(7)----|
A[-------------------------------------------------------------------|
E[-------------------------------------------------------------------|

   A#
  Guitar 1
E[---------------------------------------|
B[---------------------------------------|
G[-------3-----3/7-----7--10-7--10/15--\-|
D[-3---3----3-------8--------------------|
A[---5-----------------------------------|
E[---------------------------------------|
 [Guitar 2
E[---------------------------------17--\-|
B[---------------11----11/15----17-------|
G[-7---7-10-7-10----10-------15----------|
D[---8-----------------------------------|
A[---------------------------------------|
E[---------------------------------------|


   G
  Guitar 1 
E[-------------------------------------------|
B[-------------------------------------------|
G[-------5----5/9-----9-----9-12-9-12/17--\--|
D[---------5-------10----10------------------|
A[-3---3-------------------------------------|
E[---3---------------------------------------|
 [Guitar 2
E[------------------------------------20--\--|
B[--------------13----13------17---17--------|
G[-------9----9----12------------17----------|
D[---------10--------------------------------|
A[-7---7-------------------------------------|
E[---8---------------------------------------|

   D                      C           G 
  Guitar 1
E[------------------------------------------------|
B[------------------------------------------------|
G[-7-------(7)-----------\5----(5)----4----(4)----|
D[------------------------------------------------|
A[------------------------------------------------|
E[------------------------------------------------|
 [Guitar 2
E[------------------------------------------------|
B[------------------------------------------------|
G[-14-----(14)-----------\9----(9)----7----(7)----|
D[------------------------------------------------|
A[------------------------------------------------|
E[------------------------------------------------|
 [Guitar 3
E[------------------------------------------------|
B[------------------------------------------------|
G[-11-----(11)------------\12--(12)---12---(12)---|
D[------------------------------------------------|
A[------------------------------------------------|
E[------------------------------------------------|

  Guitar 1
E[------------------------------------------|
B[------------------------------------------|
G[-11---9---/14-------11---9-----(9)--------|
D[------------------------------------------|
A[------------------------------------------|
E[------------------------------------------|
 [Guitar 2
E[------------------------------------------|
B[------------------------------------------|
G[------------------------------------------|
D[-7----7---/14-------7----7-----(7)--------|
A[------------------------------------------|
E[------------------------------------------|
 [Guitar 3
E[-14---12--/17-------14---12----(12)-------|
B[------------------------------------------|
G[------------------------------------------|
D[------------------------------------------|
A[------------------------------------------|
E[------------------------------------------|
 [Guitar 4
E[------------------------------------------|
B[------------------------------------------|
G[------------------------------------------|
D[-2----2----7-6-5----2----2----7-6-5-------|
A[-0----0----5-4-3----0----0----5-4-3-------|
E[------------------------------------------|

  Guitar 1
E[-----------------------------------------------------------|
B[-----------------------------------------------------------|
G[-11---9---/14----\9-/15--------------(15)------------------|
D[-----------------------------------------------------------|
A[-----------------------------------------------------------|
E[-----------------------------------------------------------|
 [Guitar 2
E[-----------------------------------------------------------|
B[-----------------------------------------------------------|
G[-----------------------------------------------------------|
D[-7----7---/14----\7-/15--------------(15)------------------|
A[-----------------------------------------------------------|
E[-----------------------------------------------------------|
 [Guitar 3
E[-14---12--/17----\12/18--------------(18)------------------|
B[-----------------------------------------------------------|
G[-----------------------------------------------------------|
D[-----------------------------------------------------------|
A[-----------------------------------------------------------|
E[-----------------------------------------------------------|
 [Guitar 4
E[------------------------------18-22b--------(22)-------\---|
B[---------------------------18------------------------------|
G[-----------------------------------------------------------|
D[-----------------------------------------------------------|
A[-----------------------------------------------------------|
E[-----------------------------------------------------------|
 [Guitar 5
E[-----------------------------------------------------------|
B[-----------------------------------------------------------|
G[-----------------------------------------------------------|
D[-2----2----7-6-5-4-3--------(3)----------------------------|
A[-0----0----5-4-3-2-1--------(1)----------------------------|
E[-----------------------------------------------------------|


 Main Riff

E------------------------------------------|
B------------------------------------------|
G-------5-7-------7-5-------5-7-7-5---7-5--|
D-------5-7-------7-5-------5-7-7-5-7-7-5--|
A-0-5-7-----0-5-7-----0-5-7---------7------|
E------------------------------------------|

E------------------------------------------|
B------------------------------------------|
G-------5-7-------7-5-------5-7-7-5--------|
D-------5-7-------7-5-------5-7-7-5---2----|
A-0-5-7-----0-5-7-----0-5-7---------7-0----|
E------------------------------------------|

E------------------------------------------|
B------------------------------------------|
G-------5-7-------7-5-------5-7-7-5---7-5--|
D-------5-7-------7-5-------5-7-7-5-7-7-5--|
A-0-5-7-----0-5-7-----0-5-7---------7------|
E------------------------------------------|
 
 
E------------------------------------------------|
B------------------------------------------------|
G-------5-7-------7-5-------5-7------------------|
D-------5-7-------7-5-------5-7-7-5---2----(2)---|
A-0-5-7-----0-5-7-----0-5-7---------7-0----(0)---|
E------------------------------------------------|


E--------------|
B--------------|
G--------------|
D-2------------|
A-0-----4------|
E-------2------|

 Verse Riff
  [------------PM------------]
    h     h   h     h   h     h
E------------------------------------------|
B------------------------------------------|
G------------------------------------------|
D-2-4-4-2-4-2-4-4-2-4-2-4-4-2--------------|
A-2-2-2-2-2-2-2-2-2-2-2-2-2-2---2-0-----5--|
E-----------------------------------0-2----|

  [------------PM------------]
    h     h   h     h   h     h
E----------------------------------------------------|
B----------------------------------------------------|
G----------------------------------------------------|
D-2-4-4-2-4-2-4-4-2-4-2-4-4-2---------------------7--|
A-2-2-2-2-2-2-2-2-2-2-2-2-2-2---2-0---4-2-0---4-x-5--|
E-------------------------------------0-2-----0-2-x--|

  [------------PM------------]
    h     h   h     h   h     h
E------------------------------------------|
B------------------------------------------|
G------------------------------------------|
D-2-4-4-2-4-2-4-4-2-4-2-4-4-2--------------|
A-2-2-2-2-2-2-2-2-2-2-2-2-2-2---2-0-----5--|
E-----------------------------------0-2----|

  [------------PM------------]
    h     h   h     h   h     h
E------------------------------------------|
B------------------------------------------|
G------------------------------------------|
D-2-4-4-2-4-2-4-4-2-4-2-4-4-2---2----(2)---|
A-2-2-2-2-2-2-2-2-2-2-2-2-2-2---2----(2)---|
E-------------------------------0----(0)---|


E------------------------------------|
B------------------------------------|
G-7----------------------------------|
D-7---------------3-----------/------|
A-5---------------3-----------/------|
E-----------------1-----------/------|

 Rpt main riff
 Rpt Verse
 Rpt main riff

E-------------------------------------|
B-------------------------------------|
G-------------------------------------|
D-2-----2-----2-----2-----2-----------|
A-0-----0-----0-----0-----0-----------|
E----3-----3-----0-----3-----3--2--0--|

E-------------------------------------|
B-------------------------------------|
G-------------------------------------|
D-4--4--4--4--4-----4--4--4--5--6-----|
A-2--0--2--0--2-----2--0--2--3--4-----|
E----------------2--------------------|

 Mid 8
 [--------------------Pm----------------------]
E-------------------------------------------------------------------|
B-------------------------------------------------------------------|
G-------------------------------------------------------------------|
D-5-7-----5-7-----5-7-----5-7-----5-7-----5-7---7p5-6p4-5p3---------|
A-0-0-0-0-0-0-0-0-0-0-0-0-0-0-0-0-0-0-0-0-0-0-0----0---0------------|
E-------------------------------------------------------------------|
                                                 Rpt 3 X    
 
 [--------------------Pm----------------------]
E-------------------------------------------------------------------|
B-------------------------------------------------------------------|
G---------------------------------------------------------------3---|
D-5-7-----5-7-----5-7-----5-7-----5-7-----5-7---7p5-6p4-5p3-4p2-3---|
A-0-0-0-0-0-0-0-0-0-0-0-0-0-0-0-0-0-0-0-0-0-0-0----0---0---0----1---|
E---------------------------------------------------------------1---|
  
 Harmonized guitar solo
   D                 G             D                 A  
  Guitar 1
E[--------------------------------------------------------|
B[--------------------------------------------------------|
G[-11-11-11--11-9-11-12------------11-11-11--11-9-11\9----|
D[--------------------------------------------------------|
A[--------------------------------------------------------|
E[--------------------------------------------------------|
 [Guitar 2
E[--------------------------------------------------------|
B[--------------------------------------------------------|
G[-7--7--7---7--6-7--4----4-4----4/7--7--7---7--6-7-\2----|
D[--------------------------------------------------------|
A[--------------------------------------------------------|
E[--------------------------------------------------------|
 [Guitar 3
E[-------------------15------------------------------12---|
B[--------------------------------------------------------|
G[-14-14-14--14-1414---------------14-14-14--14-1414\-----|
D[--------------------------------------------------------|
A[--------------------------------------------------------|
E[--------------------------------------------------------|

  A#         C
  Guitar 1
E[--------------------------|
B[--------------------------|
G[---10-7-10---12-11-12/14--|
D[--------------------------|
A[--------------------------|
E[--------------------------|
 [Guitar 2
E[--------------------------|
B[--------------------------|
G[-7---------9--------------|
D[--------------------------|
A[--------------------------|
E[--------------------------|
 [Guitar 3
E[--------------------------|
B[--------------------------|
G[-8---------10-------------|
D[--------------------------|
A[--------------------------|
E[--------------------------|
                             Rpt

E--------------------------------------------------|
B--------------------------------------------------|
G--------------------------------------------------|
D-9--------(9)--------------2-------2------2-------|
A-7--------(7)--------------0-------0------0--4----|
E-0--------(0)--------------------------------2----|

 Rpt verse
 Rpt main riff
 Rpt main riff 4 X for guitar solo backing.

 Twin guitar lead
  Guitar 1
E[-----------------------------10---------------------12br-10---|
B[------10----10-12------10-------12------10----10-10-----------|
G[-9-11----11-------9-11----11-------9-11----11-----------------|
D[--------------------------------------------------------------|
A[--------------------------------------------------------------|
E[--------------------------------------------------------------|
 [Guitar 2
E[--------------------------------------------------------------|
B[--------------------------------------------------------------|
G[-----------------------------7----------------------9br--7----|
D[------7----7--9--------7--------9-------7-----7--7------------|
A[-7-9-----9--------7-9-----9--------7-9-----9------------------|
E[--------------------------------------------------------------|
 [Guitar 3
E[--------------------------------------------------------------|
B[--------------------------------------------------------------|
G[--------------------------------------------------------------|
D[-4-----------(4)-------------------4-----------(4)------------|
A[-2-----------(2)-------------------2-----------(2)------------|
E[--------------------------------------------------------------|

 Guitar 1
E[-----------------------------10---------------10-12-------10-12/14-|
B[------10----10-12------10-------12------10-11-------10-12----------|
G[-9-11----11-------9-11----11-------9-11----------------------------|
D[-------------------------------------------------------------------|
A[-------------------------------------------------------------------|
E[-------------------------------------------------------------------|
 [Guitar 2
E[-------------------------------------------------------------------|
B[-------------------------------------------------------------------|
G[-----------------------------7----------------7--9--------7--9-/11-|
D[------7----7--9--------7--------9-------7--9--------7--9-----------|
A[-7-9-----9--------7-9-----9--------7-9-----------------------------|
E[-------------------------------------------------------------------|
 [Guitar 3 
E[-------------------------------------------------------------------|
B[-------------------------------------------------------------------|
G[-------------------------------------------------------------------|
D[-4------------(4)------------------4-------4-------4-------4-------|
A[-2------------(2)------------------2-------2-------2-------2-------|
E[-------------------------------------------------------------------|

  
  Guitar 1
   h    h    h    h    h     h     h     h  h
E[---------------------------------------------------|
B[---------------------------------------------------|
G[-12p0-14p0-12p0-11p0-12p00-14p00-12p00-11-12p11\9--|
D[---------------------------------------------------|
A[---------------------------------------------------|
E[---------------------------------------------------|
 [Guitar 2
 [ h    h    h    h    h     h     h     h  h
E[---------------------------------------------------|
B[-12p0-13p0-11p0-10p0-12p00-13p00-12p00-10-12p10\8--|
G[---------------------------------------------------|
D[---------------------------------------------------|
A[---------------------------------------------------|
E[---------------------------------------------------|
 [ Guitar 3
E[---------------------------------------------------|
B[---------------------------------------------------|
G[---------------------------------------------------|
D[-9----------------------------------------------9--|
A[-7-------------------------------------------9--7--|
E[-0-------------------------------------------7--0--|Rpt


  Guitar 1
   h    h    h    h    h     h     h     h  h
E[-------------------------------------------------------|
B[-13p0-15p0-13p0-12p0-13p00-15p00-13p00-12-13p12-10-----|
G[-------------------------------------------------------|
D[-------------------------------------------------------|
A[-------------------------------------------------------|
E[-------------------------------------------------------|
 [Guitar 2
 [ h    h    h    h    h     h     h     h  h
E[-12p0-13p0-11p0-10p0-12p00-13p00-12p00-10-12p10\8------|
B[-------------------------------------------------------|
G[-------------------------------------------------------|
D[-------------------------------------------------------|
A[-------------------------------------------------------|
E[-------------------------------------------------------|
 [Guitar 3
E[-------------------------------------------------------|
B[-------------------------------------------------------|
G[-------------------------------------------------------|
D[-2----------------------------------------------2------|
A[-0-------------------------------------------2--0------|
E[---------------------------------------------0---------|


  Guitar 1
   h    h    h    h    h     h     h     h  h                    ~~~~ 
E[-------------------------------------------------------------------|
B[-------------------------------------------------------------------|
G[-12p0-14p0-12p0-11p0-12p00-14p00-12p00-11-12p11\9-8---7------------|
D[----------------------------------------------------7---10-9-7-9---|
A[-------------------------------------------------------------------|
E[-------------------------------------------------------------------|
 [ h    h    h    h    h     h     h     h  h
 [Guitar 2                                                       ~~~~
E[-------------------------------------------------------------------|
B[-12p0-13p0-11p0-10p0-12p00-13p00-12p00-10-12p10\8-8-7--------------|
G[------------------------------------------------------9-8----7-8---|
D[-----------------------------------------------------------9-------|
A[-------------------------------------------------------------------|
E[-------------------------------------------------------------------|
 [ Guitar 3
E[---------------------------------------------------|
B[---------------------------------------------------|
G[---------------------------------------------------|
D[-9----------------------------------------------9--|
A[-7-------------------------------------------9--7--|
E[-0-------------------------------------------7--0--|


E-------------------------------------|
B-------------------------------------|
G-------------------------------------|
D-4--4--4--4--4-----4--4--4--5--6-----|
A-2--0--2--0--2-----2--0--2--3--4-----|
E----------------2--------------------|


 Rpt Mid 8 riff section
 Rpt verse
 Rpt main riff
 
 Ending
                                Delay effect
E------------------------------------------|
B------------------------------------------|
G-----------------3----(3)-----------------|
D-7p5-6p4-5p3-4p2-3----(3)----2--2--2--2---|
A----0---0---0----1----(1)----0--0--0--0---|
E-----------------1----(1)-----------------|

END
comments
We did not receive enough feedback on this tab! Please rate:
print report bad tab
1 2 3 4 5
I want to post or [tab]
guest
You may want to rate the tab now too:
select rating
Please do not post tabs as comments. Select "correction" instead!